Misc Unsigned Bands - Behind Our Minds - Spell Of Lonliness Chords & Tabs

 

Behind Our Minds - Spell Of Lonliness Chords & Tabs

Misc Unsigned Bands Chords & Tabs

Version: 1 Type: Tab 0 ratings
1 star 2 stars 3 stars 4 stars 5 stars
comments

Behind Our Minds - Spell Of Lonliness Tab

   
-------------------------------------------------------------------------------
www.purevolume.com/BehindOurMinds
			     Spell of Lonliness - Behind Our Minds
-------------------------------------------------------------------------------
Tabbed by:Eric Pihl
Email:
[ Tab from: http://www.guitartabs.cc/tabs/m/misc_unsigned_bands/behind_our_minds_spell_of_lonliness_tab.html ]
Tuning:dropped d
Intro- 4 times
e|---------------------------------------------------------------------------|
B|---------------------------------------------------------------------------|
G|---------------------------------------------------------------------------|
D|444444444444777777777777222222222222000000000000---------------------------|
A|444444444444777777777777222222222222000000000000---------------------------|
E|444444444444777777777777222222222222000000000000---------------------------|
Chorus- 2 times
e|---------------------------------------------------------------------------|
B|---------------------------------------------------------------------------|
G|---------------------------------------------------------------------------|
D|444444444444777777777777222222222222000000000000---------------------------|
A|444444444444777777777777222222222222000000000000---------------------------|
E|444444444444777777777777222222222222000000000000---------------------------|
verse
e|---------------------------------------------------------------------------|
B|---------------------------------------------------------------------------|
G|---------------------------------------------------------------------------|
D|444444-777777-222222-000000000000------------------------------------------|
A|444444-777777-222222-000000000000------------------------------------------|
E|444444-777777-222222-000000000000------------------------------------------|
verse continued
e|---------------------------------------------------------------------------|
B|---------------------------------------------------------------------------|
G|---------------------------------------------------------------------------|
D|444444444444777777777777222222222222000000000000---------------------------|
A|444444444444777777777777222222222222000000000000---------------------------|
E|444444444444777777777777222222222222000000000000---------------------------|
verse continued- 2 times
e|---------------------------------------------------------------------------|
B|---------------------------------------------------------------------------|
G|---------------------------------------------------------------------------|
D|44444-22222-777777777777000000000000---------------------------------------|
A|44444 22222-777777777777000000000000---------------------------------------|
E|44444-22222-777777777777000000000000---------------------------------------|
Chorus- 2 times
e|---------------------------------------------------------------------------|
B|---------------------------------------------------------------------------|
G|---------------------------------------------------------------------------|
D|444444444444777777777777222222222222000000000000---------------------------|
A|444444444444777777777777222222222222000000000000---------------------------|
E|444444444444777777777777222222222222000000000000---------------------------|
do the verse again. I don't feel like writing it again. 
Chorus- 2 times
e|---------------------------------------------------------------------------|
B|---------------------------------------------------------------------------|
G|---------------------------------------------------------------------------|
D|444444444444777777777777222222222222000000000000---------------------------|
A|444444444444777777777777222222222222000000000000---------------------------|
E|444444444444777777777777222222222222000000000000---------------------------|

e|---------------------------------------------------------------------------|
B|---------------------------------------------------------------------------|
G|---------------------------------------------------------------------------|
D|4~------7~------2~-------0~-----4~--7~-------------------------------------|
A|4~------7~------2~-------0~-----4~--7~-------------------------------------|
E|4~------7~------2~-------0~-----4~--7~-------------------------------------|
4 times
e|---------------------------------------------------------------------------|
B|---------------------------------------------------------------------------|
G|---------------------------------------------------------------------------|
D|0000-0-0000-0-00-0 4444-4-4444-4-44-4--------------------------------------|
A|0000-0-0000-0-00-0-4444-4-4444-4-44-4--------------------------------------|
E|0000-0-0000-0-00-0-4444-4-4444-4-44-4--------------------------------------|
wait till the third time of the bass solo
e|---------------------------------------------------------------------------|
B|---------------------------------------------------------------------------|
G|---------------------------------------------------------------------------|
D|0~-----------4~------7~------2~----0~--------------------------------------|
A|0~-----------4~------7~------2~----0~--------------------------------------|
E|0~-----------4~------7~------2~----0~--------------------------------------|
4 times
e|---------------------------------------------------------------------------|
B|---------------------------------------------------------------------------|
G|---------------------------------------------------------------------------|
D|444444444444777777777777222222222222000000000000----------4/0--------------|
A|444444444444777777777777222222222222000000000000----------4/0--------------|
E|444444444444777777777777222222222222000000000000----------4/0--------------|
    If you want to listen to these guys go to www.purevolume.com/BehindOurMinds


| /  slide up
| \  slide down
| h  hammer-on
| p  pull-off
| ~  vibrato
| +  harmonic
| x  Mute note
===============================================================================
Comments