Misc Unsigned Bands - Batteries Not Inculded - Tittes And Beer Chords & Tabs

 

Batteries Not Inculded - Tittes And Beer Chords & Tabs

Misc Unsigned Bands Chords & Tabs

Version: 1 Type: Bass Tab 0 ratings
1 star 2 stars 3 stars 4 stars 5 stars
comments

Batteries Not Inculded - Tittes And Beer Bass Tab

Intro/Outro

E-0---0---0---0---0---0---0---0---0---0---0---0---0---0---0---0---0---0---0--|
A---3---3---3---3---3---5---5---5---5---5---7---7---7---7---7---5---5---5----|
D----------------------------------------------------------------------------|
G----------------------------------------------------------------------------|

E-0---0---0---0---0---0---0---0---0---0---0---0---0---0---0---0---0---0-----|
A---5---5---3---3---3---3---3---5---5---5---5---5---7---7---7---7---7-------|
D---------------------------------------------------------------------------|
G---------------------------------------------------------------------------|

Verse 1
[ Tab from: http://www.guitartabs.cc/tabs/m/misc_unsigned_bands/batteries_not_inculded_tittes_and_beer_btab.html ]
E-00-----00-----00-----00-----00-----00-----00-----00-----00-----00-----00--|
A----3-5----3-5----3-5----3-5----3-5----3-5----3-5----3-5----3-5----3-5-----|
D---------------------------------------------------------------------------|
G---------------------------------------------------------------------------|

Solo

E-2-4-------------------------------2-1-3-----------------------------------|
A-----3-5-----------------------6-4-------3-5--------2-4--------------------|
D---------2-4----------5--7--------------------3-5-2-----2-4----------------|
G-------------2-1--3-5------6-8---------------------------------------------|

Verse 2
E-0000---------0000-------------0000-------------0000---------0000----------|
A-----33333-555--------33333-555--------33333-555----33333-555----33333-555-|
D---------------------------------------------------------------------------|
G---------------------------------------------------------------------------|


Order
Verse 1 x3
solo
Verse 1 x3
Verse 2 x3
Outro
Comments