Misc Unsigned Bands - Basement Window - The Confused Days Chords & Tabs

 

Basement Window - The Confused Days Chords & Tabs

Misc Unsigned Bands Chords & Tabs

Version: 1 Type: Tab 0 ratings
1 star 2 stars 3 stars 4 stars 5 stars
comments

Basement Window - The Confused Days Tab

Me and my friend have a band. WE have just got the intro down pat and the outro. This is 
band. We formed bout 2 months ago and got our name from where we were first seen 
;)Just Play It.....

[ Tab from: http://www.guitartabs.cc/tabs/m/misc_unsigned_bands/basement_window_the_confused_days_tab.html ]
Intro x4
E|--0000--3333--5555--3333--7777----6-6-6---5-5-5--|
A|--0000--5555--7777--5555--9999----8-8-8---7-7-7--|
D|-------------------------------------------------|
G|-------------------------------------------------|
B|-------------------------------------------------|
e|-------------------------------------------------|


Outro
E|--0000--3333--5555--3333--7777----6-6-6---5-5----------55--|
A|--0000--5555--7777--5555--9999----8-8-8---7-7----------77--|
D|-----------------------------------------------------------|
G|-----------------------------------------------------------|
B|-----------------------------------------------------------|
e|-----------------------------------------------------------|
Comments