Misc Unsigned Bands - Badantix - Free America Blood For Oil Chords & Tabs

 

Badantix - Free America Blood For Oil Chords & Tabs

Misc Unsigned Bands Chords & Tabs

Version: 1 Type: Tab 0 ratings
1 star 2 stars 3 stars 4 stars 5 stars
comments

Badantix - Free America Blood For Oil Tab

   
  free america-the bad antix www.myspace.com/thebadantix
-------------------------------------------------------------------------------
Tabbed by:Diz Dylan
Email:www.myspace.com/thebadantix

Tuning:straight up normal
intro:lead
e|-7p10p7p9p7p10p7p9p7p10p7p9p7p10p7p9p-etc.etc.-------------------------------|
B|-----------------------------------------------------------------------------|
G|-----------------------------------------------------------------------------|
D|-----------------------------------------------------------------------------|
A|-----------------------------------------------------------------------------|
E|-----------------------------------------------------------------------------|
intro:rhthym
e|-----------------------------------------------------------------------------|
B|-----------------------------------------------------------------------------|
G|-----------------------------------------------------------------------------|
D|-----5--------4---------5--------7--8----------------------------------------|
A|-2---3---5----2----2----3---5----5--6----------------------------------------|
E|-0-------3---------0--------3------------------------------------------------|

verse 1
e|-----------------------------------------------------------------------------------|
B|-----------------------------------------------------------------------------------|
G|-----------------------------------------------------------------------------------|
D|-------55555-------44444-------55555-------xx-7-xx-8----------------------  repeat-|x3
A|-22222-33333-55555-22222-22222-33333-55555-xx-5-xx-6-------------------------------|
E|-00000-------33333-------00000-------33333-----------------------------------------|
[ Tab from: http://www.guitartabs.cc/tabs/m/misc_unsigned_bands/badantix_free_america_blood_for_oil_tab.html ]
breakdown
e|-----------------------------------------------------------------------------|
B|-----------------------------------------------------------------------------|
G|-----------------------------------------------------------------------------|
D|-55-777---------55-777-------------------------------------------------------|
A|-33-555-777-999-33-555-777-999--2--------------------------------------------|
E|--------555-777--------555-777--0--------------------------------------------|

chorus
e|-----------------------------------------------------------------------------|
B|-----------------------------------------------------------------------------|
G|-----------------------------------------------------------------------------|
D|-----9xx555-444xx-----5xx-444------------------------------------------------|
A|-7xx-7xx333-222xx-3xx-3xx-222-555xx------------------------------------------|
E|-5xx--------------1xx---------333xx------------------------------------------|

verse 2 and 3   fast paced strumming
e|-----------------------------------------------------------------------------|
B|-----------------------------------------------------------------------------|
G|-----------------------------------------------------------------------------|
D|-----9xx-5xx-4xx-----5xx-4xx-------------------------------------------------|
A|-7xx-7xx-3xx-2xx-3xx-3xx-2xx-5xx---------------------------------------------|
E|-5xx-------------1xx---------3xx---------------------------------------------|

the order of the song is
intro
verse1
breakdown
chorus
verse2
chorus
verse 3


| /  slide up
| \  slide down
| h  hammer-on
| p  pull-off
| ~  vibrato
| +  harmonic
| x  Mute note
===============================================================================
Comments