Misc Unsigned Bands - Bad Idea - Infect Chords & Tabs

 

Bad Idea - Infect Chords & Tabs

Misc Unsigned Bands Chords & Tabs

Version: 1 Type: Tab 0 ratings
1 star 2 stars 3 stars 4 stars 5 stars
comments

Bad Idea - Infect Tab

   
URL to Band Site: http://bad-idea.cjb.net
Country: USA
State: PA
Members:
-Matt M  (Vocals)
-Drew Q  (Guitar)
-Sean D  (Guitar)
-Wes M   (Bass)
-Chris L (Drums)

-------------------------------------------------------------------------------
			     Infect - Bad Idea
-------------------------------------------------------------------------------
Tabbed by:NOVA, Gtr.I of Bad Idea
Email:NOVA@bad-idea.cjb.net

Tuning: Normal
Part: Rhythm -- BG "Strings" Part to be added next Version
Tab Version: 0.7 -- Solo Not Included in this Tab

Intro/Verse.1
e|---------------------------------------------------------------------------|
B|---------------------------------------------------------------------------|
G|---------------------------------------------------------------------------|
D|---6-6--x-x-x-x-2-2-x-x-4-4-x-x--------------------------------------------|
A|---6-6--x-x-x-x-2-2-x-x-4-4-x-x-[Loop until Verse End]---------------------|
E|---4-4--x-x-x-x-0-0-x-x-2-2-x-x--------------------------------------------|
[ Tab from: http://www.guitartabs.cc/tabs/m/misc_unsigned_bands/bad_idea_infect_tab.html ]
Chorus
e|---------------------------------------------------------------------------|
B|---------------------------------------------------------------------------|
G|--------4------------------------------------------------------------------|
D|--6-----4(x8)-2-----4------------------------------------------------------|
A|--6(x8)-2-----2(x8)-4(x8)--------------------------------------------------|
E|--4-----------0-----2------------------------------------------------------|

Verse.2
e|---------------------------------------------------------------------------|
B|---------------------------------------------------------------------------|
G|---------------------------------------------------------------------------|
D|---6-----8------9-----11---------------------------------------------------|
A|---6(x8)-8(x8)--9(x8)-11(x8)-----------------------------------------------|
E|---4-----6------7------9---------------------------------------------------|

Order
-----
Intro
Verse
Chorus
Verse
Verse.2
Chorus
Solo [Not Tabbed]
Chorus
Chorus.2 [Not Tabbed]
Outro [Not Tabbed]

Next Version Soon

| /  slide up
| \  slide down
| h  hammer-on
| p  pull-off
| ~  vibrato
| +  harmonic
| x  Mute note
===============================================================================
Comments