Misc Unsigned Bands - Asimov - Vitamin-d Chords & Tabs

 

Asimov - Vitamin-d Chords & Tabs

Misc Unsigned Bands Chords & Tabs

Version: 1 Type: Tab 0 ratings
1 star 2 stars 3 stars 4 stars 5 stars
comments

Asimov - Vitamin-d Tab

   
www.asimovband.cjb.net

This is the First Studio track from the new album, and their gig opener.

This Tab was given to me by the Frontman Dan, so its the real deal.
Played on a Gibson SG standard on the Treble pickup.

Tuning open E flat.

Intro:
eb|-----------------------------------|
Bb|-----------------------------------|
Gb|-----------------------------------|
Db|-13-13-13-13-13-13--13-13-13-13-13-|
Ab|-11-11-11-11-11-11--13-14-14-14-14-|
Eb|-xx-xx-xx-xx-xx-xx--00-00-00-00-00-|

Guitar turns down, Bass plays Same idea through verses Gsharp to Emajor aka:
Gb|-------------------|
Db|-------------------| Do this with lots a fiddling around the scales
Ab|-------------------| Just like Joe (the bassist) does.
Eb|-666666/9\222222\1-|

Prechorus:
eb|----------------------------------|
Bb|----------------------------------|
Gb|----------------------------------|
Db|----------------------------------|
Ab|-77xx77xx66xx66xx77xx77xx66xx66xx-|
Eb|-44xx44xx44xx44xx55xx55xx55xx55xx-|
 "get so high"<------>"sorely needing"
[ Tab from: http://www.guitartabs.cc/tabs/m/misc_unsigned_bands/asimov_vitamin_d_tab.html ]
Chorus:
eb|-0000--------------||------------------|
Bb|-0000--------------||------------------|
Gb|-1111--------------||------------------|
Db|-2222--------------||------------------|
Ab|-2222-77777-6-2444-||-77xx66xx77xx66xx-|
Eb|-0000-44444-4-0000-||-44xx44xx55xx55xx-|
   "MORE-------------"  "something"<-->"had"
   "BEFORE-----------"  "never"<------->"to"
   "ME---------------"  "someone"<--->"your"
   (NO GUITAR 3RD TIME, INSTEAD, SHOUT "VITAMIN D")
  
Bridge:
eb|--------------------------------|
Bb|--------------------------------|
Gb|--------------------------1-1-1-|
Db|--------------------------2-2-2-|
Ab|-----6b-----6---4/5\4-2---2-2-2-|
Eb|-4-4----4-4---4----------000000-|

Outro:
eb|-------------------------------------------------|
Bb|-------------------------------------------------|
Gb|-------------------------------------------------|etc,
Db|-------13----14-------13----13-------13-14-13-11-|etc...
Ab|-11-11----11----11-11----11----11-11-------------|
Eb|-------------------------------------------------|

Lyrics (i think)

Bloody,
In uncertain terms,
Its optimistic to think that I've ever loved,
Against this afe behind my eyes,
Nothing I take is any use,
If this is how its always been,
The suffering reveals the truth,

You get so high your ghost starts bleeding,
On the floor and sorely needing, MORE...
Something that your sure you had, BEFORE...
Never thought a sign would come to, ME...
Someone come you need your,
Vitamin-D...

Soft fire,
In the space between,
Wires underneath my skin,
And, Blood upon my knees,
With no release the feeling lingers,
On and on, inside my brain,
The *something* creep between my fingers,
The cloud begins to rise again,

I get so high my ghost starts bleeding,
On the floor and sorely needing, MORE...
Something that I'm sure I had, BEFORE...
Never thought a sign would come at, ME...
Someone come I need my,
Vitamin-D...

(BRIDGE)

Get so high my ghost starts bleeding,
On the floor and sorely needing, MORE...
Something that I'm sure I had, BEFORE...
Never thought a sign would come at, ME...
Someone come I need my,
Vitamin-D...

End
Comments