Misc Unsigned Bands - Artisans Of Torment - Born To Die Chords & Tabs

 

Artisans Of Torment - Born To Die Chords & Tabs

Misc Unsigned Bands Chords & Tabs

Version: 1 Type: Tab 0 ratings
1 star 2 stars 3 stars 4 stars 5 stars
comments

Artisans Of Torment - Born To Die Tab

   
*Born to die
*Artisans of Torment
*
Tabbed by ------ Charlie & Mike
08/27/04

777=Tremolo pick           *Both guitars playing unless otherwise noted.
h=harmonic                ~~= let ring
...=palm mute              t= tap w/pick
\=slide up                 T= tap w/finger
/=slide down               p=pull off, h= hammer-on



(Intro, Clean guitar)(X2)   
                          
E|------X2-----|------X2-----|
B|-------------|-------------|
G|-------------|-------------|
D|-----5--9--5-|-----4--7--4-|  (X2)
A|--7----------|--5----------|
E|-------------|-------------|

                          (X2)
E|-------X2------|------X2------|
B|---------------|--------------|
G|---------------|--------------|
D|------8--12--8-|-----7--10--7-|  (X2)
A|--10-----------|--8-----------|
E|---------------|--------------|

                         (X2)
E|-------------------------|
B|-------------------------|
G|-------------------------|
D|-----2--5--2-----4--7--4-|  (X2)
A|--3-----------5----------|
E|-------------------------|

Riff A (W/Distortion) (X2)
                                              
E|-----------X2-----------|-------------X2-----------|
B|------------------------|--------------------------|
G|------------------------|--------------------------|
D|-------5555--9999--5555-|--------4444--7777--4444--|  (X2)
A|--7777------------------|--5555--------------------|
E|------------------------|--------------------------|

E|---------------X2-----------------|---------------X2------------|
B|----------------------------------|-----------------------------|
G|----------------------------------|-----------------------------|
D|------------8888--12121212--8888--|--------7777--10101010--7777-|  (X2)
A|--10101010------------------------|--8888-----------------------|
E|----------------------------------|-----------------------------|

E|------------------------------------------|
B|------------------------------------------|
G|------------------------------------------|
D|-------2222-5555-2222-----4444-7777-4444--|  (X2)
A|--3333----------------5555----------------|
E|------------------------------------------|

Riff B (Distortion)(X3)        
E|-------------------------------------------------------------------|
B|-------------------------------------------------------------------|
G|-------------------------------------------------------------------|
D|--5-----5-----555-----5-----555-----5-----5---9------7----4----7/--|
A|--7-777-7-777-777-777-7-777-777-777-7-777-7--10-1010-9-99-5-55-8/--|
E|-------------------------------------------------------------------|
      ...   ...     ...   ...     ...   ...        . .   ..   ..

E|-------------------------------------------------------------------|
B|-------------------------------------------------------------------|
G|-------------------------------------------------------------------|
D|--5-----5-----555-----5-----555-----5-----5---9------7----4--------|
A|--7-777-7-777-777-777-7-777-777-777-7-777-7--10-1010-9-99-5-55-8h--|
E|-------------------------------------------------------------------|
      ...   ...     ...   ...     ...   ...        . .   ..   ..

Riff C                                       (X4)
E|----------------------|-----------------------|
G|----------------------|-----------------------|
B|----------------------|-----------------------|
D|---------9---------9h-|--------11---------11h-|
A|--7-9-10----7-9-10----|-9-11-12----9-11-12----|
E|----------------------|-----------------------|
                     Guitar 2.  3&4 time
E|------X2-------|--------X2--------|
G|---------------|------------------|
B|---------------|------------------|
D|---------9-----|----------11------|
A|--7-9-10--10-9-|--9-11-12---12-11-|
E|---------------|------------------|


Riff B (Distortion)(X3)        
E|-------------------------------------------------------------------|
B|-------------------------------------------------------------------|
G|-------------------------------------------------------------------|
D|--5-----5-----555-----5-----555-----5-----5---9------7----4----7/--|
A|--7-777-7-777-777-777-7-777-777-777-7-777-7--10-1010-9-99-5-55-8/--|
E|-------------------------------------------------------------------|
      ...   ...     ...   ...     ...   ...        . .   ..   ..

E|-------------------------------------------------------------------|
B|-------------------------------------------------------------------|
G|-------------------------------------------------------------------|
D|--5-----5-----555-----5-----555-----5-----5---9------7----4--------|
A|--7-777-7-777-777-777-7-777-777-777-7-777-7--10-1010-9-99-5-55-8h--|
E|-------------------------------------------------------------------|
      ...   ...     ...   ...     ...   ...        . .   ..   ..

Riff D (Chorus)   (X6)
                                         
E|-----------------------|---------------------------------|
G|-----------------------|---------------------------------|
B|-----------------------|---------------------------------|
D|--9---9---9~----9------|--9---9---9~--------2--------4---|
A|--7---7---7~---10/-5h~-|--7---7---7~----3-3---3--5-5---5-|
E|----0---0--------------|----0---0------------------------|
      .   .                   .   .       . .   .  . .   .


Riff B (Distortion)(X3)        
E|-------------------------------------------------------------------|
B|-------------------------------------------------------------------|
G|-------------------------------------------------------------------|
D|--5-----5-----555-----5-----555-----5-----5---9------7----4----7/--|
A|--7-777-7-777-777-777-7-777-777-777-7-777-7--10-1010-9-99-5-55-8/--|
E|-------------------------------------------------------------------|
      ...   ...     ...   ...     ...   ...        . .   ..   ..

E|-------------------------------------------------------------------|
B|-------------------------------------------------------------------|
G|-------------------------------------------------------------------|
D|--5-----5-----555-----5-----555-----5-----5---9------7----4--------|
A|--7-777-7-777-777-777-7-777-777-777-7-777-7--10-1010-9-99-5-55-8h--|
E|-------------------------------------------------------------------|
      ...   ...     ...   ...     ...   ...        . .   ..   ..


[ Tab from: http://www.guitartabs.cc/tabs/m/misc_unsigned_bands/artisans_of_torment_born_to_die_tab.html ]
Riff C                                       (X4)
E|----------------------|-----------------------|
G|----------------------|-----------------------|
B|----------------------|-----------------------|
D|---------9---------9h-|--------11---------11h-|
A|--7-9-10----7-9-10----|-9-11-12----9-11-12----|
E|----------------------|-----------------------|
                     Guitar 2.  3&4 time
E|------X2-------|--------X2--------|
G|---------------|------------------|
B|---------------|------------------|
D|---------9-----|----------11------|
A|--7-9-10--10-9-|--9-11-12---12-11-|
E|---------------|------------------|

Solo Riff (Guitar 2)(X4)

E|-------------------------------------------|
G|-------------------------------------------|
B|-------------------------------------------|
D|--------5-------7p5p4-------4-------454545-|
A|--7-777---7-777-------5-555---5-555--------|
E|-------------------------------------------|
    . ...   . ...       . ...   . ...

E|-----------------------------|-----------------------|
G|-----------------------------|-----------------------|
B|-----------------------------|-----------------------|
D|------------12h----------12h-|-------7h-------10p9p7-|
A|--10-101010-----10-101010----|--8-888---8-888--------|
E|-----------------------------|-----------------------|
     .  . . .      .  . . .       . ...   . ...

Riff A 
E|-----------X2-----------|-------------X2-----------|
B|------------------------|--------------------------|
G|------------------------|--------------------------|
D|-------5555--9999--5555-|--------4444--7777--4444--|  (X2)
A|--7777------------------|--5555--------------------|
E|------------------------|--------------------------|

E|---------------X2-----------------|---------------X2------------|
B|----------------------------------|-----------------------------|
G|----------------------------------|-----------------------------|
D|------------8888--12121212--8888--|--------7777--10101010--7777-|  (X2)
A|--10101010------------------------|--8888-----------------------|
E|----------------------------------|-----------------------------|

E|----------------------------------------|
B|----------------------------------------|
G|----------------------------------------|
D|-------2222-5555-2222----4444-7777-4444-|  (X2)
A|--3333---------------5555---------------|
E|----------------------------------------|

Riff B (Distortion)(X3)        
E|-------------------------------------------------------------------|
B|-------------------------------------------------------------------|
G|-------------------------------------------------------------------|
D|--5-----5-----555-----5-----555-----5-----5---9------7----4----7/--|
A|--7-777-7-777-777-777-7-777-777-777-7-777-7--10-1010-9-99-5-55-8/--|
E|-------------------------------------------------------------------|
      ...   ...     ...   ...     ...   ...        . .   ..   ..

E|-------------------------------------------------------------------|
B|-------------------------------------------------------------------|
G|-------------------------------------------------------------------|
D|--5-----5-----555-----5-----555-----5-----5---9------7----4--------|
A|--7-777-7-777-777-777-7-777-777-777-7-777-7--10-1010-9-99-5-55-8h--|
E|-------------------------------------------------------------------|
      ...   ...     ...   ...     ...   ...        . .   ..   ..


Riff C                                       (X4)
E|----------------------|-----------------------|
G|----------------------|-----------------------|
B|----------------------|-----------------------|
D|---------9---------9h-|--------11---------11h-|
A|--7-9-10----7-9-10----|-9-11-12----9-11-12----|
E|----------------------|-----------------------|
                     Guitar 2.  3&4 time
E|------X2-------|--------X2--------|
G|---------------|------------------|
B|---------------|------------------|
D|---------9-----|----------11------|
A|--7-9-10--10-9-|--9-11-12---12-11-|
E|---------------|------------------|

Riff B (Distortion)(X3)        
E|-------------------------------------------------------------------|
B|-------------------------------------------------------------------|
G|-------------------------------------------------------------------|
D|--5-----5-----555-----5-----555-----5-----5---9------7----4----7/--|
A|--7-777-7-777-777-777-7-777-777-777-7-777-7--10-1010-9-99-5-55-8/--|
E|-------------------------------------------------------------------|
      ...   ...     ...   ...     ...   ...        . .   ..   ..

E|-------------------------------------------------------------------|
B|-------------------------------------------------------------------|
G|-------------------------------------------------------------------|
D|--5-----5-----555-----5-----555-----5-----5---9------7----4--------|
A|--7-777-7-777-777-777-7-777-777-777-7-777-7--10-1010-9-99-5-55-8h--|
E|-------------------------------------------------------------------|
      ...   ...     ...   ...     ...   ...        . .   ..   ..


Riff D (Chorus)   (X6)
                                         
E|-----------------------|---------------------------------|
G|-----------------------|---------------------------------|
B|-----------------------|---------------------------------|
D|--9---9---9~----9------|--9---9---9~--------2--------4---|
A|--7---7---7~---10/-5h~-|--7---7---7~----3-3---3--5-5---5-|
E|----0---0--------------|----0---0------------------------|
      .   .                   .   .       . .   .  . .   .

(Outtro, Clean guitar)(X1)   
                          
E|------X2-----|------X2-----|
B|-------------|-------------|
G|-------------|-------------|
D|-----5--9--5-|-----4--7--4-|  (X2)
A|--7----------|--5----------|
E|-------------|-------------|

                          (X2)
E|-------X2------|------X2------|
B|---------------|--------------|
G|---------------|--------------|
D|------8--12--8-|-----7--10--7-|  (X2)
A|--10-----------|--8-----------|
E|---------------|--------------|

                         (X2)
E|-------------------------|
B|-------------------------|
G|-------------------------|
D|-----2--5--2-----4--7~---|  (X2)
A|--3-----------5----------|
E|-------------------------|

(w/distortion)
E|-------------------|
B|-------------------|
G|-------------------|
D|-----555--999--555-| 
A|--777--------------|
E|-------------------|
Comments