Misc Unsigned Bands - Another Days Gain - Secrets To The Grave Chords & Tabs

 

Another Days Gain - Secrets To The Grave Chords & Tabs

Misc Unsigned Bands Chords & Tabs

Version: 1 Type: Tab 0 ratings
1 star 2 stars 3 stars 4 stars 5 stars
comments

Another Days Gain - Secrets To The Grave Tab

New hardcore band... Anotherdaysgain.cjb.net    yes were a real band.

Tabbed by:Brian
Email:adgguitarist@yahoo.com

Tuning:standard "I HATE STANDARD!"
This is tabbed out to the person who wants to learn this song. i cant remeber all
of it so ill put the intro and the chorus wich is pretty much the hole song.
[ Tab from: http://www.guitartabs.cc/tabs/m/misc_unsigned_bands/another_days_gain_secrets_to_the_grave_tab.html ]
intro                                           Second guitar strums...
                                              with the lead guitar
                                                    
e|-------------------------------------------|--0-----------------------|
B|------------5-------------------5----------|--0-----------------------|
G|-------5-------5----------5--------5-------|--2-----------------------|
D|----7----7-------7-----7----7---------7----|--------------------------|
A|-0-------------------0---------------------|--------------------------|
E|-------------------------------------------|--------------------------|
             ^^ play once then
e|---------------------------------------------------------------------|
B|------------5-----------------------5--------------------------------|
G|------5--------5--------------5--------5-----------------------------|
D|---7-----7--------7---------7----7---------7-------------------------|
A|-8-----------------------7-------------------------------------------|
E|---------------------------------------------------------------------|
      play once^^ thats the hole intro riff play as manye times as nesessary
Chorus
e|---------------------------------------------------------------------|
B|---------------------------------------------------------------------|
G|---------------------------------------------------------------------|
D|-5------s--7------4----4-----5--4--5---------------------------------|
A|-5-x12--s--7-x4---4-x6-4-x6--5--4--5---------------------------------|
E|-3------s--5------2----2-----3--2--3---------------------------------|
                      ^ very short pause
thats pretty much the basis to the song i cant remember the clean part at this
moment ill add it on when i remember it. just play the intro then chorus the back
into the intro then chourus then drum solo then intro then clean part wich i dont know.
Comments