Misc Unsigned Bands - Anarchy For Dummies - Cement Shoes Chords & Tabs

 

Anarchy For Dummies - Cement Shoes Chords & Tabs

Misc Unsigned Bands Chords & Tabs

Version: 1 Type: Tab 0 ratings
1 star 2 stars 3 stars 4 stars 5 stars
comments

Anarchy For Dummies - Cement Shoes Tab

   
K, you probably won't know who anarchy 4 dummies are. this is my band but don't diss
us coz we're new (and we're only 12years-old)we're are an old led zep style band and
this is a song called cement shoes. We're hoping to put an mp3 on this website soon
so listen out,

enjoy!
JIM
TOM
JOSH
WITTY


INTRO:                       dist.
|-------------------------------------------|---------------------------------|
|-------------------------------------------|---------------------------------|
|-------------------------------------------|---------------------------------|
|-2222-2222-2222-2-2^--2222-2222-2222-22----|-2222-2222-2222-2-2^--2222-2222--|
|-2222-2222-2222-2-2^--2222-2222-2222-224/2-|-2222-2222-2222-2-2^--2222-2222--|
|-0030-0030-0030-0-----0030-0030-0030-005/3-|-0030-0030-0030-0-----0030-0030--|
PM----------------|  PM---------------------------------------|  PM-----------|
 -----------------------------------------------------------------------------|
 -----------------------------------------------------------------------------|
 -----------------------------------------------------------------------------|
 -2222-22---------------------------------------------------------------------|
 -2222-224/2------------------------------------------------------------------|
 -0030-005/3------------------------------------------------------------------|
------------------------------------------------------------------------------|

INTRO PT.2:                      dist.
|-----------------------------------------------------------------------------|
|-----------------------------------------------------------------------------|
|-----------------------------------------------------------------------------|
|-2222-2222-2222-22-----2222-2222-2222-22-----2222-2222-2222-22-----2222-2222-|
|-2222-2222-2222-224/2--2222-2222-2222-224/2--2222-2222-2222-224/2--2222-2222-|
|-0030-0030-0030-005/3--0030-0030-0030-005/3--0030-0030-0030-005/3--0030-0030-|

 -------------------------------------------------|
 -------------------------------------------------|
 -------------------------------------------------|
 -2222-222----------------------------------------|
 -2222-222/4/66666666-6^6^6^6^6^6^6^6^/44444444/--|
 -0030-003/5/77777777-7^7^7^7^7^7^7^7^/55555555/--|

INTRO PT.3:
|------------------|-------------------|-------------------|--------------|
|------------------|-------------------|-------------------|--------------|
|------------------|-------------------|-------------------|--------------|
|------------------|-------------------|-------------------|--------------|
|2222-222-222--/4^~|-2222-222-222--/4^~|-2222-222-222--/4^~|-2222-222-222-|
|0030-030-030-0/5^~|-0030-030-030-0/5^~|-0030-030-030-0/5^~|-0030-030-030-|
        INTRO PT.3b
 ------|---------------------|---------------------|
 ------|---------------------|---------------------|
 ------|---------------------|---------------------|
 ------|---------------------|---------------------|
 --/4^~|-22-2-22-2-22-2-22-2-|-22-2-22-2-22-2-22-2-|
 -0/5^~|-03p0-03p0-03p0-03p0-|-03p0-03p0-03p0-03p0-|
[ Tab from: http://www.guitartabs.cc/tabs/m/misc_unsigned_bands/anarchy_for_dummies_cement_shoes_tab.html ]
VERSE:
|----------------------|----------------------|----------------------|--|
|----------------------|----------------------|----------------------|--|
|----------------------|----------------------|----------------------|--|
|---2----2----2----2---|---2----2----2----2---|---2----2----2----2---|--|
|---2----2----2----2/4~|---2----2----2----2/4~|---2----2----2----2/4~|--|
|-0030-0030-0030-003/5~|-0030-0030-0030-003/5~|-0030-0030-0030-003/5~|--|
PM----------------------------------------------------------------------|
 -----------------------------------------------------------------------|
 -----------------------------------------------------------------------|
 -----------------------------------------------------------------------|
 ---2----2----2----2----------------------------------------------------|
 ---2----2----2----2----------------------------------------------------|
 -0030-0030-0030-003----------------------------------------------------|
------------------------------------------------------------------------|

CHORUS:
|-----------------------------------------------------------------|
|-----------------------------------------------------------------|
|-----------------------------------------------------------------|
|-----------------------------------------------------------------|
|-2222222222222224222222222222222422222222222222242222222222222224|
|-0000000000000000333333333333333300000000000000003333333333333333|

SOLO 1:
|-------------------------------|---------------------------------------|
|-15h17p15-12-10^8--8^(let ring)|-19p17h19-21sp18-19p17h19--------------|
|------------------9------------|-------------------------18^(let ring)-|
|-------------------------------|---------------------------------------|
|-------------------------------|---------------------------------------|
|-------------------------------|---------------------------------------|

SOLO 2:
|--------------------------------|------------------------|------------------------|
|--------------------------------|------------------------|------------------------|
|--------------------------------|------------------------|------------------------|
|-----9-------9-------9-------9--|----9-----9-----9-----9-|----7-----7-----7-----7-|
|-9h11-11-9h11-11-9h11-11-9h11-11|-7h9-9-7h9-9-7h9-9-7h9-9|-5h7-7-5h7-7-5h7-7-5h7-7|
|--------------------------------|------------------------|------------------------|

 ------------------------|
 ------------------------|
 ------------------------|
 ----5-----5-----5-----5-|
 -3h5-5-3h5-5-3h5-5-3h5-5|
 ------------------------|

OUTRO:
|-------|------------|------------|-------------------------------------|
|-------|------------|------------|-------------------------------------|
|-------|------------|------------|-------------------------------------|
|-4-55-4|-7XX-5XX-4XX|-7XX-5XX-4XX|-2-----------------------------------|
|-2-33-2|-5XX-3XX-2XX|-5XX-3XX-2XX|-2-(let ring for as long as possible)|
|-------|------------|------------|-0-----------------------------------|


ORDER:

INTRO.1
INTRO.2
INTRO.3
INTRO.3b x2
VERSE    x2
CHORUS
INTRO.3b x2
VERSE
CHORUS
INTRO.3b x2
SOLO.1
VERSE
SOLO.2
OUTRO

NOTATION LEGEND:
X  =  PALM MUTE
^  =  RELEASE
h  =  HAMMER-ON
p  =  PULL-OFF
(BUT WE ALL KNEW THIS ALREADY RIGHT?)

CONTACT ME    nirvanarockz_247@hotmail.com
Comments