Misc Unsigned Bands - Anarchy For Dummies - Brain Warped Chords & Tabs

 

Anarchy For Dummies - Brain Warped Chords & Tabs

Misc Unsigned Bands Chords & Tabs

Version: 1 Type: Tab 0 ratings
1 star 2 stars 3 stars 4 stars 5 stars
comments

Anarchy For Dummies - Brain Warped Tab

Hello eveybody this is my band and our song Brain Warped not much to say, it's a bit
alt.metal/pop-punk, anywho enjoy!

BRAIN WARPED - ANARCHY 4 DUMMIES

Intro:

|-x-x-x-x-|-----------------------------------------------------------------
|-x-x-x-x-|-----------------------------------------------------------------
|-x-x-x-x-|-----------------------------------------------------------------
|-x-x-x-x-|-----------------------------------------------------------------
|-x-x-x-x-|-7p0-00-8p0-00-11p0-00-8p0-00-7---7p0-00-5p0-00-3p0-00-5p0-00-2--
|---------|-----------------------------------------------------------------
                                               drum fill guitar 2 and bass build up
|---------------------------------------------|-----------------------------
|---------------------------------------------|-----------------------------
|---------------------------------------------|-----------------------------
|---------------------------------------------|-----------------------------
|-7p0-00-8p0-00-11p0-00-8p0-00-7---5-3-5-7~-0-|-----------------------------
|---------------------------------------------|-----------------------------

verse 1

|------------------------------------------|
|------------------------------------------|
|-----9-7-10-----9-7-5-----5-7-9-----5-7-4-|
|-----9-7-10-----9-7-5-----5-7-9-----5-7-4-| repeat
|-0-0-7-5-8--0-0-7-5-3-0-0-3-5-7-0-0-3-5-2-|
|-0-0--------0-0-------0-0-------0-0-------|

interlude 1
[ Tab from: http://www.guitartabs.cc/tabs/m/misc_unsigned_bands/anarchy_for_dummies_brain_warped_tab.html ]
|-x-x-x-x-----|
|-x-x-x-x-----|
|-x-x-x-x-----|
|-x-x-x-x-----|
|-x-x-x-x-----|
|---------12/-|

chorus

|------------------------|------------------------|
|------------------------|------------------------|
|------------------------|------------------------|
|-00023-00023-00023-3569-|-00023-00023-00023-6532-|
|-00023-00023-00023-3569-|-00023-00023-00023-6532-|
|-00023-00023-00023-3569-|-00023-00023-00023-6532-|

drum fill others silent
|----------------------|
|----------------------|
|----------------------|
|----------------------|
|----------------------|
|----------------------|

verse 2 (same as verse 1)

interlude 2 (same as interlude 1)

chorus

interlude 3

|------------------|
|------------------|
|-7777777777777777-|
|-xxxxxxxxxxxxxxxx-|
|-5555555555555555-|
|------------------|

interlude 4

|---------------------------|
|---------------------------|
|---------------------------|
|-------------------------3-| repeat
|-000023-000532-000023-0003-|
|-000023-000532-000023-0003-|

verse 3

|--------------------------|
|-----6-----5-----10-----6-|
|---7-----7-----7------7---|
|-7-----7-----7------7-----| repeat 4
|--------------------------|
|--------------------------|

Outro

|--------------------------------------------------|
|--------------------------------------------------|
|------------------------------------------------0-|
|-------979--7-------9798-------979--7-----------0-|
|-00002-7578/5-00002-7578-00002-7578/5-00002-232-0-|
|-00002-0------00002-0----00002-0------00002-232-0-|


P.S. I'll try and post more tabs [rhythm. bass. drums.] for it later until then have fun
and don't stop ROCKIN'!
Comments