Misc Unsigned Bands - Alex Mazursky Experience - Die Die Die Kill Kill Kill Chords & Tabs

 

Alex Mazursky Experience - Die Die Die Kill Kill Kill Chords & Tabs

Misc Unsigned Bands Chords & Tabs

Version: 1 Type: Bass Tab 0 ratings
1 star 2 stars 3 stars 4 stars 5 stars
comments

Alex Mazursky Experience - Die Die Die Kill Kill Kill Bass Tab

Band : The Alex Mazursky Experience 
       (We are a new band out of Richmond, Virginia)

Song : Die Die Die Kill Kill Kill



repeat first verse 2x
--------------------------------------------------------------------
--------------------------------------------------------------------
--------------------------------------------------------------------
-7-7-7H5-7-7-7H5-7-7-7H5--2222--------------------------------------

repeat second verse 2x
-14-14-14-14-14--12-12-12--9-9-9--7-7-7-9---------------------------
-12-12-12-12-12--12-12-12--9-9-9--7-7-7-7---------------------------
--------------------------------------------------------------------
--------------------------------------------------------------------

repeat third verse 3x
--------------------------------------------------------------------
-99999999-77777777-5555/1/9-99999999-77777777-5555/1/9--------------
--------------------------------------------------------------------
--------------------------------------------------------------------


--------------------------------------------------------------------
-99999999-77777777-5H7-5H7-5H7-5H7-99999999-77777777-5H7-5H7-5H7-5H7
--------------------------------------------------------------------
--------------------------------------------------------------------
[ Tab from: http://www.guitartabs.cc/tabs/m/misc_unsigned_bands/alex_mazursky_experience_die_die_die_kill_kill_kill_btab.html ]
solo only play once                               hold note let ring
----------15----------10-33333333-1H2-1H2-1H2-1H2-10----------------
-11H12H13----11H12H13-----------------------------------------------
--------------------------------------------------------------------
--------------------------------------------------------------------

repeat fourth verse 3x              
---3---2---1----0----0---00---7-7-8----------------12---11---10-----
-0---0---0----0---00---0----8-------0-hold------0----0----0---------
--------------------------------------------------------------------
--------------------------------------------------------------------

---7-7---7----------------------------------------------------------
-0-----5---5 hold--12-12-12-12--9-9-9-5-5-5-5-5---------------------
-------------------9--9--9--9---7-7-7-3-3-3-3-3--7-7-7-7------------
-------------------------------------------------5-5-5-5------------

let ring through all             these 2 notes(13&13) are quick 16th notes
-------17-17-15-19-hold----19-13-13-13/10---------------------------
-15-15--------------------------------------------------------------
--------------------------------------------------------------------
--------------------------------------------------------------------

repeat fifth verse 2x
-----------------5/7-------------------3-1--------------------------
-3H5-3H5-3H5-3H5------3H5-3H5-3H5-3H5-------------------------------
--------------------------------------------------------------------
--------------------------------------------------------------------

end with
-12-12-12-10-13-13-15-hooooolllllllllddddddddd----------------------
--------------------------------------------------------------------
--------------------------------------------------------------------
--------------------------------------------------------------------
Comments