Misc Unsigned Bands - Aftertears - Walk Away Chords & Tabs

 

Aftertears - Walk Away Chords & Tabs

Misc Unsigned Bands Chords & Tabs

Version: 1 Type: Tab 0 ratings
1 star 2 stars 3 stars 4 stars 5 stars
comments

Aftertears - Walk Away Tab

   
----------------------------------------------------------------------------
			   Walk Away - The Aftertears
-----------------------------------------------------------------------------
This is my band!  It's called the Aftertears and we're from Clio, Michigan.
This is our first song, it's called Walk Away.  This is also my first tab.


Tabbed by:Caitlin
Email:angelsk8er2008@aol.com

Tuning:eadgbe

Intro:
e|-3-1-0-000-1-0---------------------------0-1-0-000------------------------|
B|---------------1-111-3-1-0-000-0-3-1-111-----------1-3-1-111-1-0-1--------|
G|-----------------------------------------------------------------0--------|
D|--------------------------------------------------------------------------|
A|--------------------------------------------------------------------------|
E|--------------------------------------------------------------------------|
[ Tab from: http://www.guitartabs.cc/tabs/m/misc_unsigned_bands/aftertears_walk_away_tab.html ]
Chorus:
e|-0-0-0-0-0-0-0-0--0-0-0-0-0-0-0-0--0-0-0-0-0-0-0-0--2-2-2-----------------|
B|-0-0-0-0-0-0-0-0--1-1-1-1-1-1-1-1--0-0-0-0-0-0-0-0--3-3-3-----------------|
G|-0-0-0-0-0-0-0-0--0-0-0-0-0-0-0-0--0-0-0-0-0-0-0-0--2-2-2-----------------|
D|-2-2-2-2-2-2-2-2--2-2-2-2-2-2-2-2--2-2-2-2-2-2-2-2--0-0-0-----------------|
A|-2-2-2-2-2-2-2-2--3-3-3-3-3-3-3-3--2-2-2-2-2-2-2-2------------------------|
E|-0-0-0-0-0-0-0-0--0-0-0-0-0-0-0-0--0-0-0-0-0-0-0-0------------------------|

Verse:
e|----4---|
B|---2-2--|
G|-3------|
D|--------|
A|--------|
E|--------|  x8

Pre-chorus:
e|---------------------|
B|--4----4----4----4---|
G|---4----4----4----4--|
D|-2----2----2----2----|
A|---------------------|
E|---------------------|

Bridge:
e|-0-     -0-      -0-      -0-|
B|-5-     -4-      -3-      -2-|
G|---     ---      ---      ---|
D|---     ---      ---      ---|
A|---     ---      ---      ---|
E|--- x8  ---  x8  --- x8   ---| x8

Solo:
e|-5-5-5\3-1\3-3-3-3\1-1-1-6-3------------------------|
B|----------------------------6-3---------------------|
G|-------------------------------5--------------------|
D|----------------------------------------------------|
A|--------------------------------------3-5--5-3------|
E|----------------------------------3-6-----------6-3-|

Intro x1
Verse x1
Pre-chorus x1
Chorus x2
Verse x 1
Pre-chorus x1
Chorus x2
Bridge x 2
Solo: x1
Chorus x2


| /  slide up
| \  slide down
| h  hammer-on
| p  pull-off
| ~  vibrato
| +  harmonic
| x  Mute note
============================================================================
Comments