Misc Unsigned Bands - Aftermath - Soul Sucker Chords & Tabs

 

Aftermath - Soul Sucker Chords & Tabs

Misc Unsigned Bands Chords & Tabs

Version: 1 Type: Bass Tab

Aftermath - Soul Sucker Bass Tab

The bass to this song is almost identical to main guitar part, there are only changes in 
the really fast parts to reduce complications in the music.

So if you can't hear the bass, you can still go off the distorted guitar
============================================================================

[these notes underline the heavy chugging]

INTRO

G|---------------------|
D|---------------------|
A|---------------------|
D|-1-1-1-1-1-1-1-1-0~~-|

============================================================================

VERSE

G|---------------------------------------------------------------|
D|---------------------------------------------------------------|
A|---------------------------------------------------------------|
D|-0-----0-----3-2-0-5---0-2-3---0---0---0---0---3-2-0-6---0-2-3-|

G|---------------------------------------------------------|
D|---------------------------------------------------------|
A|---------------------------------------------------------|
D|-0-----0-----3-2-0-5---0-2-3---7----6----5----7----6---5-|

============================================================================

PRECHORUS
[ Tab from: http://www.guitartabs.cc/tabs/m/misc_unsigned_bands/aftermath_soul_sucker_btab.html ]
G|-----------------------------------------------------------------|
D|-----------------------------------------------------------------|
A|---------------------------------3-3---3-3---1-1---1-1---3-3-3-3-|
D|-0-0---0-0---0-0---0-0---0-0-0-0---------------------------------|

G|-----------------------------------------------------------------|
D|-----------------------------------------------------------------|
A|---------------------------------3-3---3-3---4-4---4-4-----------|
D|-0-0---0-0---0-0---0-0---0-0-0-0-------------------------0---0---|


============================================================================

CHORUS

G|-------------------------------------------------------|
D|-------------------------------------------------------|
A|-------------------------------------------------------|
D|-0-----0-0-0-0-7----6----5---3-----3-----3---3---3---3-|

G|-------------------------------------------------------|
D|-------------------------------------------------------|
A|-------------------------------------------------------|
D|-0-----0-0-0-0-7----6----5---3-----3-----5----5----5-6-|


============================================================================

OUTRO

G|---------------------------------------------|
D|---------------------------------------------|
A|---------------------------------------------|
D|-0-------------0---0---0-------------0---0---|

G|---------------------------------------------|
D|---------------------------------------------|
A|---------------------------------------------|
D|-0-------------0---0---0-------------0-0-0-0-|