Misc Unsigned Bands - A-hole Josh Moore - The Government Is Your Friend Chords & Tabs

 

A-hole Josh Moore - The Government Is Your Friend Chords & Tabs

Misc Unsigned Bands Chords & Tabs

Version: 1 Type: Bass Tab 0 ratings
1 star 2 stars 3 stars 4 stars 5 stars
comments

A-hole Josh Moore - The Government Is Your Friend Bass Tab

   
	     The Government Is Your Friend - A-hole Josh Moore
-------------------------------------------------------------------------------

Tabbed By :  Joshua Moore
e-mail:

Tuning:standard
[ Tab from: http://www.guitartabs.cc/tabs/m/misc_unsigned_bands/a_hole_josh_moore_the_government_is_your_friend_btab.html ]
                    Play 1st part 2x
intro
G|-----3-3-3-3-3-------------------------------------------------------------|
D|----------------7\3-2-2----------------------------------------------------|
A|-------------------------3-0-3---------------------------------------------|
E|---------------------------------------0-3----3-5-3---0-3-0-5-0-0-0--------|

chorus
G|--------------------------------------------------|
D|-----------------0-------------------------0-0-0--|
A|----3-3-3-4-5-6----3-0-2-1-0-1-4-5-6--------------|
E|--------------------------------------------------|

Bass solo
G|-----------------------------------------------------------------|
D|-------6b7--15-14-13-19b20------------------------0-6-7-8-12b13--|
A|------------------------------3-0-7-9-7-6-5-3--------------------|
E|-----------------------------------------------------------------|
Comments