Misc Unsigned Bands - A Final Misconception - Go Ahead Chords & Tabs

 

A Final Misconception - Go Ahead Chords & Tabs

Misc Unsigned Bands Chords & Tabs

Version: 1 Type: Tab 0 ratings
1 star 2 stars 3 stars 4 stars 5 stars
comments

A Final Misconception - Go Ahead Tab

This is a new unsigned band GIVE THEM A CHANCE!!

Tabbed By KYLE

This song IS IN DROP D!!

once again IT IS IN DROP D!!!

KEY-
h= hammer on


VERSE  (find out the beat)
----------------------------|
----------------------------|
-7---4----------------------|
-7---4--5---7---------------|
-5---2--5---7-------5-------|
--------5---7---7h9---------|

-----------------------------|
-----------------------------|
-7---4-----------------------|
-7---4--5---7----------------|
-5---2--5---7----------------|
--------5---7---7h9-7h9-7h9--|

CHORUS

----------------------|
----------------------|
11------7-------------|   repeat
-9------5-------------|
-9------5-------------|
-9------5-------------|

BRIDGE
[ Tab from: http://www.guitartabs.cc/tabs/m/misc_unsigned_bands/a_final_misconception_go_ahead_tab.html ]
Rythmn Guitar For Bridge -
---------------------------|
---------------------------|
---------------------------|    repeat until it does the harmonic part
-0-------0------0----------|
-0-------0------0----------|
-0-------0------0----------|

----------------------------------------|
----------------------------------------|
---14-------16---------14------12-------|
------14-------14---------14------14----|
-12------12--------12-------12-------12-|
----------------------------------------|

Lead Guitar For Bridge-

----------------------------------|
----------------------------------|
-7------9------7-----5---5---5h7--|
---0------0------0-----0---0------|
-----0------0------0--------------|
----------------------------------|


ENDING

-----------------------------------------2---|
-----7---10----8-7-----------7-----2-2h3---3-|
-7h9---9----9------------7h9---9-------------|
---------------------------------------------|
---------------------------------------------|
---------------------------------------------|


ORDER OF SONG

VERSE
CHORUS
VERSE
CHORUS
BRIDGE
ENDING
Comments