Misc Unsigned Bands - 8kount - Insanity Defense Chords & Tabs

 

8kount - Insanity Defense Chords & Tabs

Misc Unsigned Bands Chords & Tabs

Version: 1 Type: Tab 0 ratings
1 star 2 stars 3 stars 4 stars 5 stars
comments

8kount - Insanity Defense Tab

   
Insanity Defense____Written by Chris Suttle and James Sayer.
This is an awsome song, and this is right, cuz Chris Suttle gave it to me.
Tuning: C#
D#-highest string     key:
A#                        .= palm mute
F#                        /= slide off
C#                        ^= emphasize
G#
C#-lowest string

intro: also used as interlude with backmasking of Chorus 2 part.
d#--------------------------------------------------------------------------|
a#--------------------------------------------------------------------------|
f#--------------------------------------------------------------------------|
c#--------------------------------------------------------------------------|
g#--5555--5555-/8---5555--5555-/8---3333--3333------------------------------|
c#--0000--0000------0000--0000----------------------------------------------|
[ Tab from: http://www.guitartabs.cc/tabs/m/misc_unsigned_bands/8kount_insanity_defense_tab.html ]
                ^               ^
 heavy interlude: riff repeat and palm mute as neccesary
d#---------------------------------------------------------------------------|
A#---------------------------------------------------------------------------|
F#--------------10--------------10---5555---5555---5555---5555---------------|
c#--7777--7777--10--7777--7777--10---5555---5555---5555---5555---------------|
g#--5555--5555-/8---5555--5555-/8----3333---3333---3333---3333---------------|
c#--0000--0000------0000--0000-----------------------------------------------|
    ....  ....  ^    ....  .... ^      ....   ....   ....   ....
 verse riff: palm mute
d#---------------------------------------------------------------------------|
a#---------------------------------------------------------------------------|
f#---------------------------------------------------------------------------|
c#--7777--7777--7777--7777---101010-101010---5555--5555------3-5-5/7---------|
g#--5555--5555--5555--5555/---8888--8888-----3333--3333--3-5-----------------|
c#---------------------------------------------------------------------------|
    ....  ....  ....  ....                   ....  ....
 Chorus: Strum as needed, listen for chored changes
d#--0------------------------------------------------------------------------|
a#--3------------------------------------------------------------------------|
F#--2----------10--12--------------------------------------------------------|
C#--0----10----10--12--------------------------------------------------------|
g#--0----8-----8---10--------------------------------------------------------|
C#--0----8-------------------------------------------------------------------|

 Chorus: pick in single string fashion - listen closely
d#-----------0---------------------------------------------------------------|
A#--------6------------------------------------------------------------------|
f#------5--------------------------------------------------------------------|
c#----0----------------------------------------------------------------------|
g#---------------------------------------------------------------------------|
c#---------------------------------------------------------------------------|

 bridge: strum as needed
d#---------------------------------------------------------------------------|
A#---------------------------------------------------------------------------|
F#---------------------------------------------------------------------------|
c#--10--11---7---5---3----10--11--12--5---3----------------------------------|
G#--10--11---7---5---3----10--11--12--5---3----------------------------------|
c#--10--11---7---5---3----10--11--12--5---3----------------------------------|
Comments