Misc Unsigned Bands - 6 Days No Power - I Was Born Chords & Tabs

 

6 Days No Power - I Was Born Chords & Tabs

Misc Unsigned Bands Chords & Tabs

Version: 1 Type: Tab 0 ratings
1 star 2 stars 3 stars 4 stars 5 stars
comments

6 Days No Power - I Was Born Tab

6dnp is a indie rock band out of jax Fla and this is a song of thrir LP
INTRO/let it ring(play chord let ring for 2 measures then play the next)
[--------------------------------------------]
[--------------------------------------------]
[--------------------------------------------]
[--7-------7--------7------------------------]
[--5-------5--------5------7-------9-------5-]
[--------------------------5-------7-------3-]

INTELUDE/strum the rythm
[------------------]
[------------------]
[------------------]
[-7----------------]
[-5---7---9---5----]
[-----5---7---3----]
[ Tab from: http://www.guitartabs.cc/tabs/m/misc_unsigned_bands/6_days_no_power_i_was_born_tab.html ]
VERSE/palm mute
[-------------------]
[-------------------]
[-------------------]
[-7-----------------]
[-5----7----9----5--]
[------5----7----3--]

CHORUS
[------------------------]
[------------------------]
[------------------------]
[-77---------------------]
[-55-----77-----99-----55]
[--------55-----77-----33]

BRIDGE
[--------------------------------------------------------------------------]
[--------------------------------------------------------------------------]
[--------------------------------------------------------------------------]
[---7--7--------------------------------4--4-------------------------------]
[-55-55-55---7--7-----9--9-----5--5---55-55-55---4--4-----9--9--5555555-5-5]
[----------55-55-55-77-77-77-33-33-33----------55-55-55-77-77-773333333-3-3]
Comments