Misc Unsigned Bands - 5 Lane Highway - Rolling Forever Chords & Tabs

 

5 Lane Highway - Rolling Forever Chords & Tabs

Misc Unsigned Bands Chords & Tabs

Version: 1 Type: Tab 0 ratings
1 star 2 stars 3 stars 4 stars 5 stars
comments

5 Lane Highway - Rolling Forever Tab

   
Rolling Forever:5 Lane Highway
5 Lane Highway is a small town band that is struggling to be a sensation. They are
very popular in their hometown and if you go there you'll hear about them if you
mention music or bars. They only give and sell exclusive albums, you can't buy them
in ANY stores as of today. Their philosophy is to play to have fun while playing.
The band is made of 5 members, the rythymist, lead guitarist and the singer are brother
and sisters and the drummer and flutist are brother and sister and cousins of the otherthree.

There are many wierd playings by the rythymist so i included exactly what i thought they
sounded like
Key:
/=slide up
\=slide down
B=bend
H=hammer on
P=pull off
^=up stroke
@=e|-0-|
  B|-3-|
  G|-0-|
  D|-2-|
  A|-0-|
  e|-0-|

#=e|-0-|
  B|-3-|
  G|-2-|
  D|-3-|
  A|-0-|
  e|-0-|

%=e|-0-|
  B|-3-|
  G|-0-|
  D|-3-|
  A|-2-|
  e|-0-|

&=e|-0-|
  B|-0-|
  G|-2-|
  D|-2-|
  A|-2-|
  e|-0-|

?=e|-0-|
  B|-0-|
  G|-4-|
  D|-4-|
  A|-2-|
  e|-0-|

()=e|-2-|
   B|-0-|
   G|-0-|
   D|-2-|
   A|-3-|
   e|-0-|



Intro                                                                  C
e|-------------------------------------------------------------------------|
B|-------------------------------------------------------------------------|
G|-0-------1-----------------------------------2-0-------------0-----------|
D|---3-2-0---2-3-0-------1-------------------------3-2-0-3-2-0---3-1-2---2-|
A|-----------------3-2-0---3-2-0-------1-------------------------------3---|
E|-------------------------------3-2-0---3-2-0-----------------------------|
     e
e|-------------------------------------------------------------------------|
B|-1-----2s15--------------------------------------------------------------|
G|-----2-2s15--------------------------------------------------------------|
D|---2---------------------------------------------------------------------|
A|-------------------------------------------------------------------------|
E|-------------------------------------------------------------------------|

Main Verse:
   Em            Em     Em              G          G    G    
e|-------12----10----12----------------------9---7---9---------------------|
B|-10----------------------10-----------7----------------7-----------------|
G|-------------------------------------------------------------------------|
D|-------------------------------------------------------------------------|
A|-------------------------------------------------------------------------|
E|-------------------------------------------------------------------------|
   I'm somewhere in the middle,         I can't find myself.

   %             %       %            #       #         #
e|-------12----10----12----------------------9---7---9---------------------|
B|-10----------------------10-----------7----------------7-----------------|
G|-------------------------------------------------------------------------|
D|-------------------------------------------------------------------------|
A|-------------------------------------------------------------------------|
E|-------------------------------------------------------------------------|
   I  feel  like   a   book            on  a   crowded  shelf

   @              @        @          ?         ?        ?
e|-------12----10----12----------------------9---7---9---------------------|
B|-10----------------------10-----------7----------------7-----------------|
G|-------------------------------------------------------------------------|
D|-------------------------------------------------------------------------|
A|-------------------------------------------------------------------------|
E|-------------------------------------------------------------------------|
   Somewhere in the sky               It's to hard to find


   &            &          &           C        C         C
e|-------12----10----12----------------------9---7---9---------------------|
B|-10----------------------10-----------7----------------7-----------------|
G|-------------------------------------------------------------------------|
D|-------------------------------------------------------------------------|
A|-------------------------------------------------------------------------|
E|-------------------------------------------------------------------------|
   Something to keep me                  From falling behind

The main riff is this throughout the song
[ Tab from: http://www.guitartabs.cc/tabs/m/misc_unsigned_bands/5_lane_highway_rolling_forever_tab.html ]
Chorus:
    Em        Em            Em         A        A         A
e|-------------------------------------------------------------------------|
B|-------------------------------------------------------------------------|
G|-------------------------------------------------------------------------|
D|-------------------------------------------------------------------------|
A|-------------------------------------------------------------------------|
E|-------------------------------------------------------------------------|
   It's         my          life!       I live it 'til I die

    F          F             F         D         D            D
e|-------------------------------------------------------------------------|
B|-------------------------------------------------------------------------|
G|-------------------------------------------------------------------------|
D|-------------------------------------------------------------------------|
A|-------------------------------------------------------------------------|
E|-------------------------------------------------------------------------|
   I     dont     have     wings       So   I   still  can't  fly   

   ()          ()           ()       C  C^ C           C^ C  C^ C  C^
e|-------------------------------------------------------------------------|
B|-------------------------------------------------------------------------|
G|-------------------------------------------------------------------------|
D|-------------------------------------------------------------------------|
A|-------------------------------------------------------------------------|
E|-------------------------------------------------------------------------|
   It  still  getting  better      It keeps on rolling forever

For the rythtm, play up to the # chord then play the solo chords(play softly)
and pick up at the @ chord at the end of the solo
Solo:
  C         C          C         C         C         C         C         C
e|-------------------------------------------------------------------------|
B|-------------------------------------------------------------------------|
G|-------------------------------------------------------------------------|
D|-------------------------------------------------------------------------|
A|-------------------------------------------------------------------------|
E|-------------------------------------------------------------------------|

  G         G          G         G         G         G         G         G
e|-------------------------------------------------------------------------|
B|-------------------------------------------------------------------------|
G|-------------------------------------------------------------------------|
D|-------------------------------------------------------------------------|
A|-------------------------------------------------------------------------|
E|-------------------------------------------------------------------------|

 C         C          C         C         C         C         C         C
e|-------------------------------------------------------------------------|
B|-------------------------------------------------------------------------|
G|-------------------------------------------------------------------------|
D|-------------------------------------------------------------------------|
A|-------------------------------------------------------------------------|
E|-------------------------------------------------------------------------|

  G         G          G         G         G         G         G         G
e|-------------------------------------------------------------------------|
B|-------------------------------------------------------------------------|
G|-------------------------------------------------------------------------|
D|-------------------------------------------------------------------------|
A|-------------------------------------------------------------------------|
E|-------------------------------------------------------------------------|
  
Start playing last half of final verse

Additions to final corus:
(play normally all the way until the end, then...)
  C  C^ C       C^ C  C^ C  C^    C  C^ C          C^ C  C^ C  C^    A
e|-------------------------------------------------------------------------|
B|-------------------------------------------------------------------------|
G|-------------------------------------------------------------------------|
D|-------------------------------------------------------------------------|
A|-------------------------------------------------------------------------|
E|-------------------------------------------------------------------------|
It keeps on rollin' forever!     It's always been rollin' forever!   Yeah  

Outro(both rythym and lead): 
e|-------------------------------------------------------------------------|
B|-------------------------------------------------------------------------|
G|-7----------------5----------------------2-2^-2(let ring)----------------|
D|-7----------------5----------------------2-2^-2--------------------------|
A|-------------------------------------------------------------------------|
E|-------------------------------------------------------------------------|


I will complete this tab soon but its late
Comments