Misc Unsigned Bands - 4 Lit Fuse - The 4th Lit Fuse Chords & Tabs

 

4 Lit Fuse - The 4th Lit Fuse Chords & Tabs

Misc Unsigned Bands Chords & Tabs

Version: 1 Type: Tab 0 ratings
1 star 2 stars 3 stars 4 stars 5 stars
comments

4 Lit Fuse - The 4th Lit Fuse Tab

this tab is of our own band, its name does not already exist in the data base
so, please accept this tab

E0----0-----0----0-----0----0----0----0----0----0-------|
B0----0-----0----0-----0----0----0----0----0----0-------|
G0(x6)0(x6)-0(x6)0(x6)-0(x6)0(x6)0(x4)0(x4)0(x4)0(x4)~~~
D0----0-----0----0-----0----0----0----0----0----0-------|
A2----3-----2----3-----2----3----0----0----0----0-------|
E-----------0----0-----0----0----3----2----3----2-------|
First verse electric guitar and intro

E0----0----0----0--------------------------------------|
B0----0----0----0--------------------------------------|
G0(x6)0(x6)0(x6)0(x6)---(play twice)-------------------|
D0----0----0----0--------------------------------------|
A2----3----0----0--------------------------------------|
E0----0----3----2--------------------------------------|
acoustic only

E0----0-----0----0-----0----0----0----0----0----0-------|
B0----0-----0----0-----0----0----0----0----0----0-------|
G0(x6)0(x6)-0(x6)0(x6)-0(x6)0(x6)0(x4)0(x4)0(x4)0(x4)~~~
D0----0-----0----0-----0----0----0----0----0----0-------|
A2----3-----2----3-----2----3----0----0----0----0-------|
E-----------0----0-----0----0----3----2----3----2-------|
electric 3rd verse

E0----0----0----0------------------0----0----------------|
B0----0----0----0------------------0----0----------------|
G0(x6)0(x6)0(x6)0(x6)-(play twice)-0(x6)0-(play 4 times)-|
D0----0----0----0------------------0----0----------------|
A2----0----0----3------------------3----2----------------|
E0----3----2----0------------------2----3----------------|
acoustic 4th verse

E0----0----0----0--------------------------------------------|
B0----0----0----0--------------------------------------------|
G0(x6)0(x6)0(x6)0(X6)-(PLAY TWICE)---------------------------|
D0----0----0----0--------------------------------------------|
A2----3----0----0--------------------------------------------|
E0----0----3----2--------------------------------------------|
Acoustic first, then electric, then together. Chorus
[ Tab from: http://www.guitartabs.cc/tabs/m/misc_unsigned_bands/4_lit_fuse_the_4th_lit_fuse_tab.html ]
E0-0-0-00-0-0-00-00-0-0-000-00-------------------------------|
B0-0-0-00-0-0-00-00-0-0-000-00-------------------------------|
G0~0~0~00-0~0~00-00-0~0~000-00-(play twice)------------------|
D0-0-0-00-0-0-00-00-0-0-000-00-------------------------------|
A2-3-0-00-2-3-00-00-3-2-000-00-------------------------------|
E0-0-3-22-0-0-33-22-0-0-333-22-------------------------------|
play the part once acoustic, then once more with acoustic & electric

E------------------------------------------------------------------|
B------------------------------------------------------------------|
G0(x6)0(x6)0-------------------------------------------------------|
D2----3----3/5-0(x6)0(x6)0-----------------0----0------------------|
A--------------2----3----3/50(x6)0(x6)0----0(x4)0-(x4)(play twice)-|
E---------------------------2----3----3/5--3----2------------------|
Solo electric.

E0------0------0---------------------------------------------|
B0------0------0---------------------------------------------|
G0(x12)-0(x12)-0(x6)-----------------------------------------|
D0------0------0---------------------------------------------|
A0------0------3---------------------------------------------|
E2------3------2---------------------------------------------|
acoustic background (play with electric solo)

E0--00--000-0--00-000-0--00-000-0-00-000-0--------------------|
B0--00--000-0--00-000-0--00-000-0-00-000-0--------------------|
G0--00--000-0--00-000-0--00-000-0-00-000-0~~~~----------------|
D0--00--000-0--00-000-0--00-000-0-00-000-0--------------------|
A0--00--000-0--00-000-0--00-000-0-00-000-0--------------------|
E3--33--333-2--22-222-3--33-333-2-22-222-3--------------------|
Acoustic outro

E-------------------------------------------------------------|
B-------------------------------------------------------------|
G-------------------------------------------------------------|
D--0---0--0--(play twice)-------------------------------------|
A-0---0--2----------------------------------------------------|
E5---3--0-----------------------------------------------------|
electric outro (with acoustic)

there is a 20 second pause then the acoustic plays

E-0---------------------------------|
B-0---------------------------------|
G-0(X3)-----------------------------|
D-0---------------------------------|
A-0---------------------------------|
E-3---------------------------------|

Tabed by Christian Groschen, Joseph Polivany, Jack Cambell and Sam Hanson
this is a tab from our own band, it IS 100% correct... because we wrote it, hehehehe.
and if you do learn it, please do not say to anyone that you created it yourself, we
have had trouble with that in the past. so learn it, and play it for fun, it rocks, so enjoy!!!
     and, for those about to rock, we salute you!!  \m/(0.0)\m/
Comments