Misc Unsigned Bands - 48 May - Leather And Tattoes Chords & Tabs

 

48 May - Leather And Tattoes Chords & Tabs

Misc Unsigned Bands Chords & Tabs

Version: 1 Type: Tab 0 ratings
1 star 2 stars 3 stars 4 stars 5 stars
comments

48 May - Leather And Tattoes Tab

   
48 may are a new band from new zealand they only have a single out
, and there video for this song appears on c4 select!!

hay thingy here! i have looked everywhere for this songs tab
but had no luck, so i decided to tab it my self. so here it is
in full! oh and i've tabbed it out from start to finish
for you and this is 100% correct

2 guitarists = guitar 1 = lead
               guitar 2 = rythm
key:
/ = slide up
\ = slide down
~ = let ring
x = palm mute
> = stroke down
< = stroke up
X = mute string


standard tunning (E,A,D,G,B,E)

intro/ lead
E|--4-4-5-5-7-7-5-5-4-4-5-5-7-7-7/9\7-4-4-5-5-7-7-5-5-4~----------||
B|----------------------------------------------------------------||
G|----------------------------------------------------------------||
D|----------------------------------------------------------------||x2
A|----------------------------------------------------------------||
E|----------------------------------------------------------------||

intro/ rythm
E|----------------------------------------------------------------||
B|----------------------------------------------------------------||
G|----------------------------------------------------------------||
D|--9-9-9-9-9-9-9-9-7-7-7-7-7-7-7-7-9-9-9-9-9-9-9-9-7~------------||x2
A|--9-9-9-9-9-9-9-9-7-7-7-7-7-7-7-7-9-9-9-9-9-9-9-9-7~------------||
E|--7-7-7-7-7-7-7-7-5-5-5-5-5-5-5-5-7-7-7-7-7-7-7-7-5~------------||

verse 1/ rythm
E|----------------------------------------------------------------||
B|----------------------------------------------------------------||
G|----------------------------------------------------------------||
D|---bass and vocal during this bar (this half of the verse)------||
A|----------------------------------------------------------------||
E|----------------------------------------------------------------||

E|----------------------------------------------------------------||
B|----------------------------------------------------------------||
G|-->->-<->-<->->-<->-<->->-<->-<->->-<->-<->->-<->-<->->-<->-<---||
D|--9-9-9-9-9-7-7-7-7-7-9-9-9-9-9-7-7-7-7-7-9-9-9-9-9-7-7-7-7-7-9~||x1
A|--9-9-9-9-9-7-7-7-7-7-9-9-9-9-9-7-7-7-7-7-9-9-9-9-9-7-7-7-7-7-9~||
E|--7-7-7-7-7-5-5-5-5-5-7-7-7-7-7-5-5-5-5-5-7-7-7-7-7-5-5-5-5-5-7~||
    x x x x x x x x x x x x x x x x x x x x x x x x x x x x x x 

chorus 1/ both guitarists
E|----------------------------------------------------------------||
B|----------------------------------------------------------------||
G|----------------------------------------------------------------||
D|--9-9-9-9-9-9-9-9-7-7-7-7-7-7-7-7-9-9-9-9-9-9-9-9-7~------------||x2
A|--9-9-9-9-9-9-9-9-7-7-7-7-7-7-7-7-9-9-9-9-9-9-9-9-7~------------||
E|--7-7-7-7-7-7-7-7-5-5-5-5-5-5-5-5-7-7-7-7-7-7-7-7-5~------------||

verse 2/ rythm
E|----------------------------------------------------------------||
B|----------------------------------------------------------------||
G|----------------------------------------------------------------||
D|---bass and vocal during this bar (this half of the verse)------||
A|----------------------------------------------------------------||
E|----------------------------------------------------------------||

E|----------------------------------------------------------------||
B|----------------------------------------------------------------||
G|-->->-<->-<->->-<->-<->->-<->-<->->-<->-<->->-<->-<->->-<->-<---||
D|--9-9-9-9-9-7-7-7-7-7-9-9-9-9-9-7-7-7-7-7-9-9-9-9-9-7-7-7-7-7-9~||x1
A|--9-9-9-9-9-7-7-7-7-7-9-9-9-9-9-7-7-7-7-7-9-9-9-9-9-7-7-7-7-7-9~||
E|--7-7-7-7-7-5-5-5-5-5-7-7-7-7-7-5-5-5-5-5-7-7-7-7-7-5-5-5-5-5-7~||
    x x x x x x x x x x x x x x x x x x x x x x x x x x x x x x 
[ Tab from: http://www.guitartabs.cc/tabs/m/misc_unsigned_bands/48_may_leather_and_tattoes_tab.html ]
chorus 2/ both guitarists
E|----------------------------------------------------------------||
B|----------------------------------------------------------------||
G|----------------------------------------------------------------||
D|--9-9-9-9-9-9-9-9-7-7-7-7-7-7-7-7-9-9-9-9-9-9-9-9-7~------------||x2
A|--9-9-9-9-9-9-9-9-7-7-7-7-7-7-7-7-9-9-9-9-9-9-9-9-7~------------||
E|--7-7-7-7-7-7-7-7-5-5-5-5-5-5-5-5-7-7-7-7-7-7-7-7-5~------------||

bridge/ lead
E|--4--5--5h7p5--4--5--7h9p7--4--5--5h7p5--4~--4--5--5h7p5--4--5--||
B|----------------------------------------------------------------||
G|----------------------------------------------------------------||
D|----------------------------------------------------------------||
A|----------------------------------------------------------------||
E|----------------------------------------------------------------||

E|--7h9p7--4--5--5h7p5--4~--------||
B|--------------------------------||
G|--------------------------------||
D|--------------------------------||x1
A|--------------------------------||
E|--------------------------------||

bridge/ rythm


E|----------------||
B|----------------||
G|----------------||
D|--7~~------9~~--||x4
A|--7~~------9~~--||
E|--5~~------7~~--||

solo/ lead
E|--4-4-5-5-7-7-5-5-4-4-5-5-7-7-7/9\7-4-4-5-5-7-7-5-5-4~~---------||
B|----------------------------------------------------------------||
G|----------------------------------------------------------------||
D|----------------------------------------------------------------||
A|----------------------------------------------------------------||
E|----------------------------------------------------------------||


E|--12-12-14-14-16-16-14-14-12-12-14-14-16-16-16/18\16-12-12-14-14||
B|----------------------------------------------------------------||
G|----------------------------------------------------------------||
D|----------------------------------------------------------------||
A|----------------------------------------------------------------||
E|----------------------------------------------------------------||


E|--16-16-14-14-12~||
B|-----------------||
G|-----------------||
D|-----------------||
A|-----------------||
E|-----------------||

solo/ rythm
E|----------------------------------------------------------------||
B|----------------------------------------------------------------||
G|----------------------------------------------------------------||
D|--9-9-9-9-9-9-9-9-7-7-7-7-7-7-7-7-9-9-9-9-9-9-9-9-7~------------||x2
A|--9-9-9-9-9-9-9-9-7-7-7-7-7-7-7-7-9-9-9-9-9-9-9-9-7~------------||
E|--7-7-7-7-7-7-7-7-5-5-5-5-5-5-5-5-7-7-7-7-7-7-7-7-5~------------||

chorus 3/ both guitars
E|----------------------------------------------------------------||
B|----------------------------------------------------------------||
G|----------------------------------------------------------------||
D|--9-9-9-9-9-9-9-9-7-7-7-7-7-7-7-7-9-9-9-9-9-9-9-9-7~------------||x2
A|--9-9-9-9-9-9-9-9-7-7-7-7-7-7-7-7-9-9-9-9-9-9-9-9-7~------------||
E|--7-7-7-7-7-7-7-7-5-5-5-5-5-5-5-5-7-7-7-7-7-7-7-7-5~------------||

outro/ lead
E|--4-4-5-5-7-7-5-5-4-4-5-5-7-7-7/9\7-4-4-5-5-7-7-5-5-4~----\0----||
B|----------------------------------------------------------------||
G|----------------------------------------------------------------||
D|----------------------------------------------------------------||x1
A|----------------------------------------------------------------||
E|----------------------------------------------------------------||

outro/ rythm
E|----------------------------------------------------------------||
B|----------------------------------------------------------------||
G|----------------------------------------------------------------||
D|--XX-X-7-XX-X-7-XX-X-7-XX-X-7-XX-X-7-XX-X-7-XX-X-7-XX-X-7--\0---||
A|--XX-X-7-XX-X-7-XX-X-7-XX-X-7-XX-X-7-XX-X-7-XX-X-7-XX-X-7--\0---||
E|--XX-X-5-XX-X-5-XX-X-5-XX-X-5-XX-X-5-XX-X-5-XX-X-5-XX-X-5--\0---||

E|----------------------------------------------------------------||
B|----------------------------------------------------------------||
G|----------------------------------------------------------------||
D|--XX-X-7-XX-X-79-XX-X-7-XX-X-79-XX-X-7-XX-X-79-XX-X-7-XX-X-79---||
A|--XX-X-7-XX-X-79-XX-X-7-XX-X-79-XX-X-7-XX-X-79-XX-X-7-XX-X-79---||
E|--XX-X-5-XX-X-57-XX-X-5-XX-X-57-XX-X-5-XX-X-57-XX-X-5-XX-X-57---||
Comments