Misc Unsigned Bands - 30 Minutes Til - Stepping Stone Chords & Tabs

 

30 Minutes Til - Stepping Stone Chords & Tabs

Misc Unsigned Bands Chords & Tabs

Version: 1 Type: Tab 0 ratings
1 star 2 stars 3 stars 4 stars 5 stars
comments

30 Minutes Til - Stepping Stone Tab

   
-------------------------------------------------------------------------------
                             Stepping Stone - 30 Minutes 'Til
-------------------------------------------------------------------------------
Tabbed by: Cameron Eldridge
E-mail: regimentresistance@gmail.com

The way to play the song in a live situation


Intro (Part 1)
e|---------------------------------------------------------------------------|
B|---------------------------------------------------------------------------|
G|---------------------------------------------------------------------------|
D|9-9-9-9-9-9-9-9-9-9-9-9-9-11-7-7-7-7-7-7-7-7-7-7-7-7-7-7-7-7---------------|
A|9-9-9-9-9-9-9-9-9-9-9-9-9-11-7-7-7-7-7-7-7-7-7-7-7-7-7-7-7-7---------------|
E|9-9-9-9-9-9-9-9-9-9-9-9-9-11-7-7-7-7-7-7-7-7-7-7-7-7-7-7-7-7---------------|

Intro (Part 2)
e|---------------------------------------------------------------------------|
B|---------------------------------------------------------------------------|
G|----------------------------------------7-7-7-9-7-12-12-11-7-7-7-9-7------|
D|7-7-7-7-7-0-0-0-0-0-7-7-7-9-0-0-0-0-0-0-----------------------------------|
A|7-7-7-7-7-0-0-0-0-0-7-7-7-9-0-0-0-0-0-0-7-7-7-9-7-12-12-11-7-7-7-9-7------|
E|7-7-7-7-7-0-0-0-0-0-7-7-7-9-0-0-0-0-0-0-----------------------------------|

Verse (Part 1, repeat 3 times)
e|---------------------------------------------------------------------------|
B|---------------------------------------------------------------------------|
G|---------------------------------------------------------------------------|
D|9-9-9-9-9-11-7-7-7-7-7-9-9-9-9-9-11-7-7-7-7-7------------------------------|
A|9-9-9-9-9-11-7-7-7-7-7-9-9-9-9-9-11-7-7-7-7-7------------------------------|
E|9-9-9-9-9-11-7-7-7-7-7-9-9-9-9-9-11-7-7-7-7-7------------------------------|
    x x x      x x x x x   x x x       x x x x x
[ Tab from: http://www.guitartabs.cc/tabs/m/misc_unsigned_bands/30_minutes_til_stepping_stone_tab.html ]
Verse (Part 2)
e|---------------------------------------------------------------------------|
B|---------------------------------------------------------------------------|
G|---------------------------------------------------------------------------|
D|9-9-9-9-9-7-7-7-7-7-11-11-11-11-11-----------------------------------------|
A|9-9-9-9-9-7-7-7-7-7-11-11-11-11-11-----------------------------------------|
E|9-9-9-9-9-7-7-7-7-7-11-11-11-11-11-----------------------------------------|
    x x x x   x x x x    x  x  x  x  

Chorus (Part 1)
e|---------------------------------------------------------------------------|
B|---------------------------------------------------------------------------|
G|---------------------------------------------------------------------------|
D|4-4-4-4-4-2-2-2-2-2-0-0-0-0-0-7-7-7-7-7-0-0-0-0-0-7-7-7-9-0-0-0-0-0--------|
A|4-4-4-4-4-2-2-2-2-2-0-0-0-0-0-7-7-7-7-7-0-0-0-0-0-7-7-7-9-0-0-0-0-0--------|
E|4-4-4-4-4-2-2-2-2-2-0-0-0-0-0-7-7-7-7-7-0-0-0-0-0-7-7-7-9-0-0-0-0-0--------|

Chorus (Part 2)
e|---------------------------------------------------------------------------|
B|---------------------------------------------------------------------------|
G|4-4-4-4-4-2-2-2-4-4-5-------------7-7-7-9-7-12-12-11-7-7-7-9-7-------------|
D|----------------------7-7-7-7-7-7------------------------------------------|
A|4-4-4-4-4-2-2-2-4-4-5-0-0-0-0-0-0-7-7-7-9-7-12-12-11-7-7-7-9-7-------------|
E|---------------------------------------------------------------------------|

Breakdown (Part 1)
e|---------------------------------------------------------------------------|
B|10-9-----------------------------------------------------------------------|
G|9--7-9-6-9-----------------------------------------------------------------|
D|9--7-0-----9-7-------------------------------------------------------------|
A|9--7-0---------------------------------------------------------------------|
E|9--7-0---------------------------------------------------------------------|

Breakdown (Part 2, clean, listen for picking pattern)
e|---------------------------------------------------------------------------|
B|----10------9--------------------------------------------------------------|
G|---------------------9-6---------------------------------------------------|
D|--9------7----7-------------9-11-9-7-7-------------------------------------|
A|-9------7------7--0--------0-----------------------------------------------|
E|9------7---------0--------0------------------------------------------------|


************************************

| /   slide up
| \   slide down
| h   hammer-on
| p   pull-off
| ~   vibrato
| +   harmonic
| x   Mute note
| b   Bend
| pb  Pre-bend
| br  Bend release
| pbr Pre-bend release
| brb Bend release bend

************************************
Comments