Misc Unsigned Bands - 24 Hours - Looking Back Instrumental Chords & Tabs

 

24 Hours - Looking Back Instrumental Chords & Tabs

Misc Unsigned Bands Chords & Tabs

Version: 1 Type: Tab

24 Hours - Looking Back Instrumental Tab

   
24 Hours - Looking Back (Instrumental)
Written by Callum Outridge and Ollie Milton
www.24hoursonline.tk

Main Riff:

e|--------------------------------------------------------||
B|--------------------------------------------------------||
G|9-9-9-9-9-9-9-------------------------------------------||
D|9-9-9-9-9-9-9-9-9-9-9-9-9--11-11-11-11-11-11-7-7-7-6-6-6||
A|7-7-7-7-7-7-7-9-9-9-9-9-9--11-11-11-11-11-11-7-7-7-6-6-6||
E|--------------7-7-7-7-7-7--9--9--9--9--9--9--5-5-5-4-4-4||

Chorus:

e|-----------------------||    e|---------------------------||
B|-----------------------||    B|-------------------------16||
G|-----------------------||    G|9-9-9-9-9-9-9-9------------||
D|4-4-4-4-4-4/7-7-7-7-7-7||    D|9-9-9-9-9-9-9-9  PAUSE  ---||
A|4-4-4-4-4-4/7-7-7-7-7-7||    A|7-7-7-7-7-7-7-7------------||
E|2-2-2-2-2-2/5-5-5-5-5-5|| X4 E|---------------------------||

Solo 1 (Callum Outridge) (Unknown)

Solo 2

e|---------------------------------------------------------------||
B|---------------------------------------------------------------||
G|7^(9)-7^(9)p-5---------------------------5h7-7^(9)7vv----------||
D|---------------7-5---------------5---5h7--------------7-5h7vv--||
A|-------------------7-5h7-----5h7---7---------------------------||
E|-------------------------5h8-----------------------------------||

e|---------------------------------------------------------------||
B|---------------------------------------------------------------||
G|---------------------------------------------------------------||
D|---------------------12vv-14p12----12----------12----12-14-14vv||
A|---------------12h14------------14----14-12h14----14-----------||
E|12v12v12v12h15-------------------------------------------------||
[ Tab from: http://www.guitartabs.cc/tabs/m/misc_unsigned_bands/24_hours_looking_back_instrumental_tab.html ]
e|---------------------------------------------------------------||
B|-----------------15--------12h15p12h15p12h15p12h15p12h15p12h15p||
G|12----14-14^(16)----14^(16)------------------------------------||
D|---14----------------------------------------------------------||
A|---------------------------------------------------------------||
E|---------------------------------------------------------------||

e|---------------------------------------------------------------||
B|15^(17)15-12---------------------------------------------------||
G|-------------14-12h14-14-12------------------------------------||
D|----------------------------14-12-14vv-------------------------||
A|---------------------------------------------------------------||
E|---------------------------------------------------------------||

Rhythm Guitar behind solo:

e|--------------------------------------------------------||
B|--------------------------------------------------------||
G|9-9-9-9-9-9-9-------------------------------------------||
D|9-9-9-9-9-9-9-9-9-9-9-9-9--11-11-11-11-11-11-7-7-7-6-6-6||
A|7-7-7-7-7-7-7-9-9-9-9-9-9--11-11-11-11-11-11-7-7-7-6-6-6||
E|--------------7-7-7-7-7-7--9--9--9--9--9--9--5-5-5-4-4-4||

Ending:

e|-----------------------||    e|---------------------------------||
B|-----------------------||    B|---------------------------------||
G|-----------------------||    G|9-9-9-9-9-9-9-9-9-9-9-9-9-9-9-9--||
D|4-4-4-4-4-4/7-7-7-7-7-7||    D|9-9-9-9-9-9-9-9-9-9-9-9-9-9-9-9--||
A|4-4-4-4-4-4/7-7-7-7-7-7||    A|7-7-7-7-7-7-7-7-7-7-7-7-7-7-7-7--||
E|2-2-2-2-2-2/5-5-5-5-5-5|| X4 E|---------------------------------||

e|-----------------------||    e|--||
B|-----------------------||    B|--||
G|-----------------------||    G|9-||
D|4-4-4-4-4-4/7-7-7-7-7-7||    D|9-||
A|4-4-4-4-4-4/7-7-7-7-7-7||    A|7-||
E|2-2-2-2-2-2/5-5-5-5-5-5|| X4 E|--||