Misc Unsigned Bands - 2020 Vision - Think Twice Chords & Tabs

 

2020 Vision - Think Twice Chords & Tabs

Misc Unsigned Bands Chords & Tabs

Version: 1 Type: Tab 0 ratings
1 star 2 stars 3 stars 4 stars 5 stars
comments

2020 Vision - Think Twice Tab

2020 vision " Think Twice

Intro
e|-0-----0-----0-----0-----0---------0---0-------0---0----|
B|---1-----1-----1-----1-----1-----3---3---3---3---3---3--|
G|-----2-----2-----2-----2-----2-2-----------2------------|
D|--------------------------------------------------------|
A|--------------------------------------------------------|
E|--------------------------------------------------------|

e|-0-----0-----0-----0-----0---------0---0-------0---0----|
B|---1-----1-----1-----1-----1-----3---3---3---3---3---3--|
G|-----2-----2-----2-----2-----2-2-----------2------------|
D|--------------------------------------------------------|
A|--------------------------------------------------------|
E|--------------------------------------------------------|

e|----|
B|-3--|
G|-X--|
D|-0--|
A|-2--|
E|-0--|
Verse
   Think twice before..
e|-----------------------|
B|-----------------------|
G|-----------------------|
D|--12---11---10---9--8--|
A|--12---11---10---9--8--|
E|--10----9----8---7--6--|

Solo 1:
..burn me...
e|---------------------------------------------------------------------------|
B|---------------------------------------------------------------------------|
G|--12h13p12-11h12p11-10h11p10-9h10p9-8h9p8B9V-------------------------------|
D|---------------------------------------------------------------------------|
A|---------------------------------------------------------------------------|
E|---------------------------------------------------------------------------|

e|---------------------------------------------------------------------------|
B|---------------------------------------------------------------------------|
G|--12h13p12-11h12p11-10h11p10-9h10p9-8h9p8B9V-------------------------------|
D|---------------------------------------------------------------------------|
A|---------------------------------------------------------------------------|
E|---------------------------------------------------------------------------|

e|---------------------------------------------------------------------------|
B|---------------------------------------------------------------------------|
G|--14h15p14-13h14p13-12h13p12-11h12p11-10h11p10-----------------------------|
D|---------------------------------------------------------------------------|
A|---------------------------------------------------------------------------|
E|---------------------------------------------------------------------------|
[ Tab from: http://www.guitartabs.cc/tabs/m/misc_unsigned_bands/2020_vision_think_twice_tab.html ]
e|---------------------------------------------------------------------------|
B|---------------------------------------------------------------------------|
G|--14h15p14-13h14p13-12h13p12-11h12p11-10h11p10-----------------------------|
D|---------------------------------------------------------------------------|
A|---------------------------------------------------------------------------|
E|---------------------------------------------------------------------------|

e|---------------------------------------------------------------------------|
B|---------------------------------------------------------------------------|
G|--16h17p16-15h16p15-14h15p14-13h14p13-12h13p12-----------------------------|
D|---------------------------------------------------------------------------|
A|---------------------------------------------------------------------------|
E|---------------------------------------------------------------------------|

e|---------------------------------------------------------------------------|
B|---------------------------------------------------------------------------|
G|--17h18p17-16h17p16-15h16p15-14h15p14-13h14p13-----------------------------|
D|---------------------------------------------------------------------------|
A|---------------------------------------------------------------------------|
E|---------------------------------------------------------------------------|

Bridge
‘You’ve unleashed the..’
e|---------------------------------------------------------------------------|
B|--15B(16)(17)-(16)(vibrate bend)-------------------------------------------|
G|--14-----(15)-(16)---------------------------------------------------------|
D|---------------------------------------------------------------------------|
A|---------------------------------------------------------------------------|
E|---------------------------------------------------------------------------|
(rhythm)
e|---------------------------------------------------------------------------|
B|---------------------------------------------------------------------------|
G|---------------------------------------------------------------------------|
D|-12--12--12--10--10--10--12--12--12--10--10--10----------------------------|
A|-12--12--12--10--10--10--12--12--12--10--10--10----------------------------|
E|-10--10--10---8---8---8"-10--10--10---8---8---8----------------------------|
Solo 2 (Doubled Lead Harmony)
Guitar 1
e|---------------------------------------------------------------------------|
B|--15p12-14p12-15p12-14p12-15p12-14p12-13p10-12p10-13p10-12p10-13p10-12p10--|
G|---------------------------------------------------------------------------|
D|---------------------------------------------------------------------------|
A|---------------------------------------------------------------------------|
E|---------------------------------------------------------------------------|
Guitar 2
e|--12h14p12h15p12h17p12h15p12h14h15p12h17p12h15p12h14p12--|
B|---------------------------------------------------------|
G|---------------------------------------------------------|
D|---------------------------------------------------------|
A|---------------------------------------------------------|
E|---------------------------------------------------------|
(reapeat bars over top of each other)
Comments