Misc Unsigned Bands - 2020 Vision - Lucifer Song Chords & Tabs

 

2020 Vision - Lucifer Song Chords & Tabs

Misc Unsigned Bands Chords & Tabs

Version: 1 Type: Tab 0 ratings
1 star 2 stars 3 stars 4 stars 5 stars
comments

2020 Vision - Lucifer Song Tab

Lucifer Song
(piano intro for guitar)
 E |--------|----------|--0-----1--0-|----------|-------------|
 B |--------|--1-----3-|--1----------|--3-----0-|-----------0-|
 G |----2---|--2-------|--0----------|--0-------|--0-----2----|
 D |--------|----------|-------------|--0-------|--0----------|
 A |--------|--0-------|--3----------|----------|-------------|
 E |--------|----------|-------------|--3-------|--3----------|     

 E |----------|-------------|----------|----------|----------|
 B |--1-----0-|-------------|--0-------|----------|--1-----3-|
 G |--2-------|--2-----1--2-|--1-----1-|--------2-|--2-------|
 D |----------|--2----------|----------|--2-------|----------|
 A |--0-------|--0----------|----------|--2-------|--0-------|
 E |----------|-------------|--0-------|--0-------|----------|     

 E |--0-----1--0-|----------|-------------|----------|----------|
 B |--1----------|--3-----0-|-----------0-|--1--0----|----------|
 G |--0----------|--0-------|--0-----2----|--2-----2-|--1-----1-|
 D |-------------|--0-------|--0----------|----------|--2--4----|
 A |--3----------|----------|-------------|--0-------|----------|
 E |-------------|--3-------|--3----------|----------|--0-------|     

 E |----------|----------|-----3----------|--3-----1--0-|----------|
 B |----------|----------|-----0----------|--0----------|--3-----0-|
 G |--2-------|--2-------|-----0----------|--0----------|--0-------|
 D |--2-------|--2-------|----------------|-------------|--0-------|
 A |--0-------|--0-------|----------------|-------------|----------|
 E |----------|----------|-----3----------|--3----------|--3-------|    
[ Tab from: http://www.guitartabs.cc/tabs/m/misc_unsigned_bands/2020_vision_lucifer_song_tab.html ]
Guitar 1
E|----------------------------------------------|
B|----------------------------------------------|
G|----------------------------------------------|
D|-X--444-5-444-3-444-4-------445----------X----|
A|-X--444-5-444-3-444-4-------445----------X----|
E|-X--222-3-222-1-222-2-------223----------X----|
pm . ...  ...  ...
guitar 2
E|----------------------------------------------|
B|--444-44-666-66-------------------------------|
G|--444-44-666-66-------------------------------|
D|--444-44-666-66-------------------------------|
A|--444-44-666-66-------------------------------|
E|----------------------------------------------|
Verses (play X when singing)
Guitar 1
E|----------------------------------------------|
B|----------------------------------------------|
G|----------------------------------------------|
D|--XXXX-4\8-88---------------------------------|
A|--XXXX-4\8*88---------------------------------|
E|--XXXX-2\6-66---------------------------------|
Guitar 2
E|----------------------------------------------|
B|-0----------------0---------------------------|
G|-0----------------0---------------------------|
D|-0----------------0---------------------------|
A|-0----------------0---------------------------|
E|----------------------------------------------|
(do fast interlude)
Outro
Guitar 1
E|----------------------------------------------|
B|----------------------------------------------|
G|----------------------------------------------|
D|--2-4----2------------------------------------|
A|--2-4----2------------------------------------|
E|--0-2----0------------------------------------|

Guitar 2
E|----------------------------------------------|
B|----------------------------------------------|
G|-------------2--------------------------------|
D|--0--X-------2--------------------------------|
A|--X--X-------2--------------------------------|
E|--X--X-------2--------------------------------|
pm          ,
Comments