Misc Unsigned Bands - 2020 Vision - Justice Chords & Tabs

 

2020 Vision - Justice Chords & Tabs

Misc Unsigned Bands Chords & Tabs

Version: 1 Type: Tab 0 ratings
1 star 2 stars 3 stars 4 stars 5 stars
comments

2020 Vision - Justice Tab

   
And Justice For All

Intro (Low E, Played Backwards)
(some backwards notes)
E|----------------------------------------------|
B|----------------------------------------------|
G|----------------------------------------------|
D|-2-2-2-0-----0--2-----------------------------|
A|-2-2-2-0-----0--2-----------------------------|
E|-0-0-0-0-----0--2-----------------------------|

E|----------------------------------------------|
B|----------------------------------------------|
G|---------0----2-------------------------------|
D|---2-2-2--2-2-2-------------------------------|
A|---2-2-2--2-2-2-------------------------------|
E|---2-0-0--0-0-0-------------------------------|

E|----------------------------------------------|
B|----------------------------------------------|
G|----------------------------------------------|
D|---2---4-5------------------------------------|
A|---2-*-4-5-*----------------------------------|
E|---0---2-3------------------------------------|
Heavy Part
E|----------------------------------------------|
B|----------------------------------------------|
G|----------------------------------------------|
D|--2----333------------------------------------|
A|--2-R--333------------------------------------|
E|--0----111------------------------------------|

E|----------------------------------------------|
B|----------------------------------------------|
G|----------------------------------------------|
D|------------8----------XXX--------------------|
A|-7-7-787-7-7-7-7-7-787-XXX--------------------|
E|-----------------------XXX--------------------|
[ Tab from: http://www.guitartabs.cc/tabs/m/misc_unsigned_bands/2020_vision_justice_tab.html ]
Verse (heavy bass and distortion)
E|----------------------------------------------|
B|----------------------------------------------|
G|----------------------------------------------|
D|--6---4--6-2-4--------------------------------|
A|--6-*-4--6-2-4--------------------------------|
E|--4---2--4-0-2--------------------------------|
Chorus
E|----------------------------------------------|
B|----------------------------------------------|
G|----------------------------------------------|
D|--2"-X\8--8---6-----------------------------|
A|--0*-X/8--8-*-6--*----------------------------|
E|--0"-X\6--6---4-----------------------------|





Interlude
E|----------------------------------------------|
B|----X--0--0-----------------------------------|
G|----15-14-0-----------------------------------|
D|----0--X--14----------------------------------|
A|----0--0--X-----------------------------------|
E|----------------------------------------------|
(play chords with this X pattern)
E|----------------------------------------------|
B|----------------------------------------------|
G|----------------------------------------------|
D|------------8----------XXX--------------------|
A|-7-7-787-7-7-7-7-7-787-XXX--------------------|
E|-----------------------XXX--------------------|

E|----------------------------------------------|
B|----------------------------------------------|
G|----------------------------------------------|
D|----------------------------------------------|
A|---------6\8-5\8------------------------------|
E|0-00-000-6\8-5\8------------------------------|
End
E|----------------------------------------------|
B|----------------------------------------------|
G|----------------------------------------------|
D|---8-8--6--4--2-------------------------------|
A|---8-8--6--4--2-R-----------------------------|
E|---6-6--4--2--0-------------------------------|
(background acoustics)
play chord prog: A-G-A-A-G-D-A
Comments