Misc Unsigned Bands - 12th Avenue - Sit At Home Chords & Tabs

 

12th Avenue - Sit At Home Chords & Tabs

Misc Unsigned Bands Chords & Tabs

Version: 1 Type: Tab 0 ratings
1 star 2 stars 3 stars 4 stars 5 stars
comments

12th Avenue - Sit At Home Tab

  intro x4
e|--------------------------------------------------------------------------|
B|--------------------------------------------------------------------------|
G|---------7-----5----------------------------------------------------------|
D|----5----7-----5-----9-----7----------------------------------------------|
A|----5----5-----3-----9-----7----------------------------------------------|
E|----3----------------7-----5----------------------------------------------|
  verses
e|------------------------------------------------------------------------|
B|------------------------------------------------------------------------|
G|-------7-----------4---5------------------------------------------------|
D|---5---7---9-------4---5---9---7----------------------------------------|
A|---5---5---9-x2----2---3---9---7--x2------------------------------------|
E|---3-------7---------------7---5----------------------------------------|
  pre chorus
e|--------------------------------------------------------------------------|
B|--------------------------------------------------------------------------|
G|---5----7-----------------------------------------------------------------|
D|---5x16-7-x16-------------------------------------------------------------|
A|---3----5-----------------------------------------------------------------|
E|--------------------------------------------------------------------------|
  chorus x4
e|--------------------------------------------------------------------------|
B|--------------------------------------------------------------------------|
G|---9------------7---------------------------------------------------------|
D|---9-x4--7------7-x4--9---------------------------------------------------|
A|---7-----7-x4---5-----9-x4------------------------------------------------|
E|---------5------------7---------------------------------------------------|
  interlude
    pm
e|--------------------------------------------------------------------------|
B|--------------------------------------------------------------------------|
G|--------------------------------------------------------------------------|
D|---7-------9--------------------------------------------------------------|
A|---7-x16---9-x16----------------------------------------------------------|
E|---5-------7--------------------------------------------------------------|
  finish off with switching from the intro to this x6 then fade
e|---------------------------------------------------------------------------|
B|---------------------------------------------------------------------------|
G|---------7-----5-----9-----------------------------------------------------|
D|----5----7-----5-----9-----7-----------------------------------------------|
A|----5----5-----3-----7-----7-----------------------------------------------|
E|----3----------------------5-----------------------------------------------|
[ Tab from: http://www.guitartabs.cc/tabs/m/misc_unsigned_bands/12th_avenue_sit_at_home_tab.html ]
Comments