Misc Unsigned Bands - 1111 - Typical Stereo Chords & Tabs

 

1111 - Typical Stereo Chords & Tabs

Misc Unsigned Bands Chords & Tabs

Version: 1 Type: Chords 0 ratings
1 star 2 stars 3 stars 4 stars 5 stars
comments

1111 - Typical Stereo Chords

   
capo 1

Tuning:EADGBe
intro     A              A7                D                 A
e|-------------------------------------------4-------------------------------|
B|---------2---------------2 -------------3-----------------------2----------|
G|-------2--------------0-------------------------x4----------2-------  -----|
D|-----------x4-------------x4-------0--------------------------------x4-----|
A|---0-------------0-------------------------------------0-------------------|
E|---------------------------------------------------------------------------|
A                                 A7
  I'm not the kind to give second chances.
D                     A
   I don't give all I have.
                   A7
I've been hurt so many times, 
D                            A
  My heart is just an empty space
A7
I was just your rebound.

    A                        A7      
So make a wish, make a wish, just dont wish for me
D                                A
  cause I'm long gone, and never returning
                                 A7      D
Wish for something you've always wanted and don't ever
              A       A7      A       D
let your mind, wander, wander, wander back
         A
to me

                         A7
I know you think you did nothing wrong,
D                                      A
 but that's just the kind of person you are.
                                A7
I wish you would've what you're missing
D                         A    A7
but the truth is we never had   anything.
[ Tab from: http://www.guitartabs.cc/tabs/m/misc_unsigned_bands/1111_typical_stereo_crd.html ]
        A                         A7
So just make a wish, make a wish, just dont wish for me
D                                  A
  cause I'm long gone, and never returning.
                                 A7    D     
Wish for something you've always wanted and dont ever
               A      A7      A       D
let your mind, wander, wander, wander back

to me


e|--333333333222000000------------------0----0-------------0----0------------|
B|----------------------333333--------3----3---333333----3----3-------x2-----|
G|----------------------------------4----4-------------4-----4---------------|
D|---------------------------------------------------------------------------|
A|---------------------------------------------------------------------------|
E|---------------------------------------------------------------------------|

G                                                  |
Never should have let you in                       |
G/F#                                               |
Never should have let you hold my hand.            |
Em                                                 |x2
I wish we never talked, i wish we never met,       |
C                                   G              |
I wish i could get you out of my head.             |
A
but its to late
A7
but its to late
A               D
but its to late now.

       A                          A7
So just make a wish, make a wish, just dont wish for me
D                               A
 cause I'm long gone, and never returning.
A                                A7     D
Wish for something you've always wanted and dont ever
               A       A7      A       A7      A      D   
let your mind, wander, wander, wander, wander, wander back
      A
to me
Comments