Misc Unsigned Bands - 0400 Mindfreeze - War Creed Chords & Tabs

 

0400 Mindfreeze - War Creed Chords & Tabs

Misc Unsigned Bands Chords & Tabs

Version: 1 Type: Tab 0 ratings
1 star 2 stars 3 stars 4 stars 5 stars
comments

0400 Mindfreeze - War Creed Tab

   
===============================================================================
Song: "War Creed"
Band: 0400 Mindfreeze
Album: Secrets in the Dark

This is one of my all-time favorite 0400 Mindfreeze songs! I can't wait for their new 
"Silence So Loud".

I'll be tabbing more 0400 Mindfreeze songs real soon!

If you have any comments/corrections, please post them here!

| /  slide up
| \  slide down
| h  hammer-on
| p  pull-off
| ~  vibrato
| +  harmonic

Tuning: AFDGBE (Although sometimes played in Drop D tuning during live performances)

INTRO

(Measures 1 & 2 - Clean and Smooth)
e|-----------------------------------------------------------------------------|
B|-----------------------------------------------------------------------------|
G|-----------------------------------------------------------------------------|
D|-----------------------------------------------------------------------------|
F|-----------------------------------------------------------------------------|
A|--0-0---7-7----0-7-7-7-8-5--0-0---7-7----0-7-7-7-8-5-------------------------|

e|-----------------------------------------------------------------------------|
B|-----------------------------------------------------------------------------|
G|-----------------------------------------------------------------------------|
D|-----------------------------------------------------------------------------|
F|-----------------------------------------------------------------------------|
A|--0-0---7-7----0-7-7-7-8-5---0-0---7-7----0-7-7-7-8-5------------------------|

(Measure 3 - Heavy Distortion)
[Keep Heavy Distortion On For Rest of Song]
e|-----------------------------------------------------------------------------|
B|-----------------------------------------------------------------------------|
G|-----------------------------------------------------------------------------|
D|-----------------------------------------------------------------------------|
F|--0-0---7-7----0-7-7-7-8-5---0-0---7-7----0-7-7-7-8-5------------------------|
A|--0-0---7-7----0-7-7-7-8-5---0-0---7-7----0-7-7-7-8-5------------------------|

e|-----------------------------------------------------------------------------|
B|-----------------------------------------------------------------------------|
G|-----------------------------------------------------------------------------|
D|-----------------------------------------------------------------------------|
F|--0-0---7-7----0-7-7-7-8-5---0-0---7-7----0-7-7-7-8-5------------------------|
A|--0-0---7-7----0-7-7-7-8-5---0-0---7-7----0-7-7-7-8-5------------------------|

e|-----------------------------------------------------------------------------|
B|-----------------------------------------------------------------------------|
G|-----------------------------------------------------------------------------|
D|-----------------------------------------------------------------------------|
F|---0-0---7-7----0-7-7-7-+12-+12-+7-- --0-0---7-7----0-7-7-7------------------|
A|--0-0---7-7----0-7-7-7-+12-+12-+7-----0-0---7-7----0-7-7-7-------------------|

e|-----------------------------------------------------------------------------|
B|-----------------------------------------------------------------------------|
G|-----------------------------------------------------------------------------|
D|-----------------------------------------------------------------------------|
F|+12-+12-+7-------------------------------------------------------------------|
A|+12-+12-+7-------------------------------------------------------------------|

VERSE - (Palm Mute)

e|-----------------------------------------------------------------------------|
B|-----------------------------------------------------------------------------|
G|-----------------------------------------------------------------------------|
D|-----------------------------------------------------------------------------|
F|--0-0-0-0-0--7--5--7--5--3---0-0-0-0-0--7--5--7--5--3------------------------|
A|--0-0-0-0-0--7--5--7--5--3---0-0-0-0-0--7--5--7--5--3------------------------|

e|-----------------------------------------------------------------------------|
B|-----------------------------------------------------------------------------|
G|-----------------------------------------------------------------------------|
D|-----------------------------------------------------------------------------|
F|--0-0-0-0-0--7--5--7--5--3---0-0-0-0-0--7--5--7--5--3------------------------|
A|--0-0-0-0-0--7--5--7--5--3---0-0-0-0-0--7--5--7--5--3------------------------|
[ Tab from: http://www.guitartabs.cc/tabs/m/misc_unsigned_bands/0400_mindfreeze_war_creed_tab.html ]
PRECHORUS
e|-----------------------------------------------------------------------------|
B|-----------------------------------------------------------------------------|
G|-----------------------------------------------------------------------------|
D|-----------------------------------------------------------------------------|
F|--0--0--+12-0--0--+12-0--0--+12-0--0--+12------------------------------------|
A|--0--0--+12-0--0--+12-0--0--+12-0--0--+12------------------------------------|


CHORUS

e|-----------------------------------------------------------------------------|
B|-----------------------------------------------------------------------------|
G|-----------------------------------------------------------------------------|
D|-----------------------------------------------------------------------------|
F|--0--0--7-7--0--0--7-7--0--0--7-7--0--0--8-----------------------------------|
A|--0--0--7-7--0--0--7-7--0--0--7-7--0--0--8-----------------------------------|

e|-----------------------------------------------------------------------------|
B|-----------------------------------------------------------------------------|
G|-----------------------------------------------------------------------------|
D|-----------------------------------------------------------------------------|
F|--0--0--7-7--0--0--7-7--0--0--7-7--0--0--8-----------------------------------|
A|--0--0--7-7--0--0--7-7--0--0--7-7--0--0--8-----------------------------------|

e|-----------------------------------------------------------------------------|
B|-----------------------------------------------------------------------------|
G|-----------------------------------------------------------------------------|
D|-----------------------------------------------------------------------------|
F|--0--0--7-7--0--0--7-7--0--0--7-7--0--0--8-----------------------------------|
A|--0--0--7-7--0--0--7-7--0--0--7-7--0--0--8-----------------------------------|

e|-----------------------------------------------------------------------------|
B|-----------------------------------------------------------------------------|
G|-----------------------------------------------------------------------------|
D|-----------------------------------------------------------------------------|
F|--0--0--7-7--0--0--7-7--0--0--7-7--0--0--8-----------------------------------|
A|--0--0--7-7--0--0--7-7--0--0--7-7--0--0--8-----------------------------------|

e|-----------------------------------------------------------------------------|
B|-----------------------------------------------------------------------------|
G|-----------------------------------------------------------------------------|
D|-----------------------------------------------------------------------------|
F|--0--0--7-7--0--0--7-7--0--0--7-7--0--0--+12---------------------------------|
A|--0--0--7-7--0--0--7-7--0--0--7-7--0--0--+12---------------------------------|

SOLO

e|-580580580580580790790790790790790790790-12-14-0-12-14-0-12-14-0-------------|
B|-----------------------------------------------------------------------------|
G|-----------------------------------------------------------------------------|
D|-----------------------------------------------------------------------------|
F|-----------------------------------------------------------------------------|
A|-----------------------------------------------------------------------------|

e|-12-14-0-12-14-0-12-14-0--15~15~15~~~----------------------------------------|
B|---------------------------------17~17~17~~~---------------------------------|
G|-----------------------------------------------------------------------------|
D|-----------------------------------------------------------------------------|
F|-----------------------------------------------------------------------------|
A|-----------------------------------------------------------------------------|

e|-12--12---10-8-8-8-8-8-8-4-6-7-8-8-8-4-6-4-6-4-6--8-10--12~------------------|
B|---------------------------------------------------------------------14~-----|
G|-----------------------------------------------------------------------------|
D|-----------------------------------------------------------------------------|
F|-----------------------------------------------------------------------------|
A|-----------------------------------------------------------------------------|

LYRICS:

They keep you inside
As you die
You'll never see them again
Enemies or Friends?

Break away from it all
But you still hear a distant call
From that room, in the prison

It aches and you know
You won't come out
Unless you bow

And whom is the one
Who you
Shall bow to?

Why do they keep you?
Who are you?
Why do they keep you?
Who are you?
Why do they keep you?
Who are you?!!!!

This was our own brigade
This was our own paradise
This was our own home

This is our own war creed
This is our own war creed
This is
This is
This is!!!!

This is our own war creed
As we sow our living seed
This is our own war creed
This is
This is
This is!!!!

===============================================================================
Comments