Misc Tv - The Flintstones Chords & Tabs

 

The Flintstones Chords & Tabs

Misc Tv Chords & Tabs

Version: 1 Type: Tab 2 ratings
1 star 2 stars 3 stars 4 stars 5 stars
comments

The Flintstones Tab

this is a pretty sweet tab
if you have any corrections you can email me at jokes_cule@hotamil.com





The Flintstones
===============

e--------------10------------------------------------------------------
B--10---------------12---10----------10---------------------10---------
G------------------------------------------12-11-11---12----------9-11-
D-------12--------------------12-------------------------------12------
A----------------------------------------------------------------------
E----------------------------------------------------------------------
 Flintstones..

e-----------10---------------------------------------------------------
B--10-----------12--10-------10----------------------10----------------
G-----------------------------------12-11---11---12--------9-----------
D-------12-------------12-------------------------------12---12--------
A----------------------------------------------------------------------
E----------------------------------------------------------------------
  From ...
[ Tab from: http://www.guitartabs.cc/tabs/m/misc_tv/the_flintstones_tab.html ]
e--9---------10---9---9-----------9---------
B-----------------------12---12--------12---
G-------11----------------------------------
D-------------------------------------------
A-------------------------------------------
E-------------------------------------------
 Let's ..

e-------------9-----------------------------
B--12-----------12-12-10--10-----12--10-----
G---------9---------------------------------
D-------------------------------------------
A-------------------------------------------
E-------------------------------------------
 Through ...

e--------------10------------------------------------------------------
B--10---------------12---10---------10--------------10-----------------
G---------------------------------------12-11-11-12---------9----------
D--------12-------------------12-----------------------12--------------
A----------------------------------------------------------------------
E----------------------------------------------------------------------
  When ..,

e-----------------------------------------10--12--10-------------------
B------------10-----------------------10-------------------------------
G--11-----12----------9-----11-----12----------------------------------
D----------------12----------------------------------------------------
A----------------------------------------------------------------------
E----------------------------------------------------------------------
Comments