Misc Traditional - Yankee Doodle Chords & Tabs

 

Yankee Doodle Chords & Tabs

Misc Traditional Chords & Tabs

Version: 2 Type: Tab 2 ratings
1 star 2 stars 3 stars 4 stars 5 stars
comments

Yankee Doodle Tab

Yank her Doodle

Here it is:

   Yan-kee Doo-dle went to tow-n,   Ri-ding on his po-ny  
e|-0---0---2---4---0----4--2--------0--0----2--4---0----------|
B|-----------------------------0----------------------4-------|
G|------------------------------------------------------------|
D|------------------------------------------------------------|
A|------------------------------------------------------------|
E|------------------------------------------------------------|

   He Stuck A Fea-ther In His Hat And Called It Maca-ro-ni
e|-0--0-----2-4---5----4--2---0----------------------0--0-----|
B|--------------------------------4---0------2--4-------------|
G|------------------------------------------------------------|
D|------------------------------------------------------------|
A|------------------------------------------------------------|
E|------------------------------------------------------------|

                  (Keep?)
   Yan-kee Doo-dle Pick It Up,   Yan-kee Doo-dle Dan-dy
e|-------------------------0----------------------------------|
B|-2---4---2---0---2----4--------0---2---0-----------0--------|
G|-------------------------------------------2---1------------|
D|------------------------------------------------------------|
A|------------------------------------------------------------|
E|------------------------------------------------------------|
[ Tab from: http://www.guitartabs.cc/tabs/m/misc_traditional/yankee_doodle_tab_ver_2.html ]
  (Mind The Music And Your Step?)
   Yan-Kee Doo-dle Keep It Up,    And Let The Girls Be Han-dy   
e|--------------------------------------------------4--0---0--|
B|-0---2---0-------0----2--4------0---2---0---2---------------|
G|-------------2----------------------------------------------|
D|------------------------------------------------------------|
A|------------------------------------------------------------|
E|------------------------------------------------------------|

This One Is A Little Different, 
I Substituted Some Of The Open Strings For The 5th Fret Sort Of Deal... 
(And No Words, Easier To Read)

e|-0-0-2-4-0-4-2-----0-0-2-4-0---|
B|---------------0-------------4-|
G|-------------------------------|
D|-------------------------------|
A|-------------------------------|
E|-------------------------------|

e|-0-0-2-4-5-4-2-0---------0-0---|
B|-----------------4-0-2-4-------|
G|-------------------------------|
D|-------------------------------|
A|-------------------------------|
E|-------------------------------|

e|-------------------------------|
B|-2-4-2-0-2-4-5---0-2-----0-----|
G|---------------------2-1-------|
D|-------------------------------|
A|-------------------------------|
E|-------------------------------|

e|-------------------------4-0-0-|
B|-0-2-0---0-2-4---0-2-0-2-------|
G|-------2-----------------------|
D|-------------------------------|
A|-------------------------------|
E|-------------------------------|

I'm Not Sure It's In The Right Key... Is That How You Spell Yankee?
Now, I'm Not Entirely Sure On The Last "And Let The Girls Be Handy",
Hell, I'm Not Even Sure If Those Are The Words... Oh Well...
E-mail me for whatever reason... Rodan2000@yahoo.com
Catch Ya Later... Dan~
Comments