Misc Traditional - Yankee Doodle Dandy Chords & Tabs

 

Yankee Doodle Dandy Chords & Tabs

Misc Traditional Chords & Tabs

Version: 1 Type: Bass Tab 0 ratings
1 star 2 stars 3 stars 4 stars 5 stars
comments

Yankee Doodle Dandy Bass Tab

its just the basics but its good enough
you can finger out the rest

G--0-0-2-4-0-4-2---0-0-2-4-0----
D-0--------------0-----------4--
A-------------------------------
E-------------------------------
[ Tab from: http://www.guitartabs.cc/tabs/m/misc_traditional/yankee_doodle_dandy_btab.html ]
G-0-0-2-4-5-4-2-----------0__0__
D---------------4-2-0-2-4-------
A-------------------------------
E-------------------------------

G-----------------------------
D-2-4-2-0-2-4-5---0-2-0-4-2-1_
A-----------------------------
E-----------------------------

G---------------------0-2-0-0-
D-2-4-2-0-2-4-5-0-2-4---------
A-----------------------------
E-----------------------------
Comments