Misc Traditional - Wildwood Flower Chords & Tabs

 

Wildwood Flower Chords & Tabs

Misc Traditional Chords & Tabs

Version: 3 Type: Tab 0 ratings
1 star 2 stars 3 stars 4 stars 5 stars
comments

Wildwood Flower Tab

Play twice:

e--------------------------------------------------|
b----------1---------------------------------------|
G------0-2-----------------------------------------|
A--2-3--------2-3-2--2-----------------------------|
D----------------------2-3-------------------------|
E--------------------------------------------------|
[ Tab from: http://www.guitartabs.cc/tabs/m/misc_traditional/wildwood_flower_tab_ver_3.html ]
then:
e------0-0-0---------------------------------------|
b----1-------1-------------------------------------|
G--0-----------0-0-0---2-3-2-----------------------|
A--------------------3-------2---------------------|
D--------------------------------------------------|
E--------------------------------------------------|

e---------------------------------------------------|
b---------------------------------------------------|
G-------------0-0-----------------------------------|
A-0^2-0^2-0^2-----------0---------------------------|
D-------------------0^2---3-------------------------|
E-----------------3---------------------------------|

Have fun!!!
Comments