Misc Traditional - University Of Colorado Fight Song Chords & Tabs

 

University Of Colorado Fight Song Chords & Tabs

Misc Traditional Chords & Tabs

Version: 1 Type: Tab 0 ratings
1 star 2 stars 3 stars 4 stars 5 stars
comments

University Of Colorado Fight Song Tab

Title: University of Colorado (CU) Fight Song
Artist: University of Colorado (CU) Band


For all those loyal Buffs fans out there, this is a fun, easy
tune to learn.  I'll leave it to you to choose lyrics for the
"---- 'em up, ---- 'em up, Go CU" part.


E ------------------------------------------------------------------
B ------------------------------------------------------------------
G ----5---5-4---4-2-------5---5-4---4-2-------5---5-4---4-7---7-6---
D 5-5-----------------5-5-----------------5-5-----------------------
A ------------------------------------------------------------------
E ------------------------------------------------------------------
[ Tab from: http://www.guitartabs.cc/tabs/m/misc_traditional/university_of_colorado_fight_song_tab.html ]
E ------------------------------------------------------------------
B ------------------------------------------------------------------
G ----------7-7-7-7-5--0------------7-7-7-7-5--0------------7-7-7-7-
D 00-00-00-------------0--00-00-00-------------0--00-00-00----------
A ------------------------------------------------------------------
E ------------------------------------------------------------------

E ------------------------------------------------------------------
B ------------------------------------------------------------------
G 5--0------------777-777-7-7-7-------------------------------------
D ---0--00-00-00----------------------------------------------------
A ------------------------------------------------------------------
E ------------------------------------------------------------------


Enjoy.
Comments