Misc Traditional - Swedish National Anthem Chords & Tabs

 

Swedish National Anthem Chords & Tabs

Misc Traditional Chords & Tabs

Version: 1 Type: Tab 1 rating
1 star 2 stars 3 stars 4 stars 5 stars
comments

Swedish National Anthem Tab

This is the Swedish national anthem and it's correct =) 



e-------------------------------------------------------
B-5-5-------------------------------5-------------------
G-----5-5-5-7-9-9-7-5-4-7-7-4-5-7-4---5-2-0-0-5-5-7-4-4-
D-------------------------------------------------------
A-------------------------------------------------------
E-------------------------------------------------------

[ Tab from: http://www.guitartabs.cc/tabs/m/misc_traditional/swedish_national_anthem_tab.html ]
e-------------------------------------------------------
B-------------------------------------------------------
G-5-2-0-2-4-0-0-5-4-5-7-9-5-10-9-7-5--------------------
D-------------------------------------------------------
A-------------------------------------------------------
E-------------------------------------------------------


e-------------------------------------------------------
B-------------------------------------------------------
G-0-5-4-5-7-9-5-10-9-7-5--------------------------------
D-------------------------------------------------------
A-------------------------------------------------------
E-------------------------------------------------------

Anything you want to complain send an e-mail to:
jungel_danne@hotmail.com
Comments