Misc Traditional - Swedish Nation Anthem Chords & Tabs

 

Swedish Nation Anthem Chords & Tabs

Misc Traditional Chords & Tabs

Version: 1 Type: Bass Tab 0 ratings
1 star 2 stars 3 stars 4 stars 5 stars
comments

Swedish Nation Anthem Bass Tab

This is the national song of sweden, may be hard to lern if youŽre not from sweden or have relatives there.

G--11-11--7-7-7--9--11-11--9--7---------------||
D-------------------------------11------------||
A---------------------------------------------||
E---------------------------------------------||
[ Tab from: http://www.guitartabs.cc/tabs/m/misc_traditional/swedish_nation_anthem_btab.html ]
G---------------------------------------------||
D--14-14--11--12--14--11--16--12--9--7--------||
A---------------------------------------------||
E---------------------------------------------||

G---------------------------------------------||
D--7--12-12--14--11-11--12--9--7--9--11--7----||
A---------------------------------------------||
E---------------------------------------------||

G---------------------------------------------||
D--7--12--11--12--14--16--12--17--16--14--12--||
A---------------------------------------------||
E---------------------------------------------||

IŽam cuite sure this is right but in other ways, e-mail me!
Comments