Misc Traditional - Star Spangled Banner Chords & Tabs

 

Star Spangled Banner Chords & Tabs

Misc Traditional Chords & Tabs

Version: 4 Type: Tab 1 rating
1 star 2 stars 3 stars 4 stars 5 stars
comments

Star Spangled Banner Tab

Star Spangled Banner (High Octave)
(You know the ryhthm.)

e----------------12-10------------------12-9-------------------------
B-------------13-------13--------------------13-12-10-12-13-13-------
G-12-9---9-12-------------9-11-12-12-12------------------------12-9-- repeat once
D------8------------------------------------------------------------8
A--------------------------------------------------------------------
E--------------------------------------------------------------------
[ Tab from: http://www.guitartabs.cc/tabs/m/misc_traditional/star_spangled_banner_tab_ver_4.html ]
e-12-12-12-13-15-15-13-12-10-12-13-13-13-12-10----------------------- 
B----------------------------------------------13-12-10-12-13--------
G-------------------------------------------------------------9-11-12
D--------------------------------------------------------------------
A--------------------------------------------------------------------
E--------------------------------------------------------------------

e-------------------------10-13-12-10-------------------10-12-13-15----10-12-13-10---
B----13-13-13-12-10-10-10-------------13-13-12-------13-------------13-------------13
G-12-------------------------------------------12-12---------------------------------
D------------------------------------------------------------------------------------
A------------------------------------------------------------------------------------
E------------------------------------------------------------------------------------
Comments