Misc Traditional - Star Spangled Banner Chords & Tabs

 

Star Spangled Banner Chords & Tabs

Misc Traditional Chords & Tabs

Version: 3 Type: Tab 4 ratings
1 star 2 stars 3 stars 4 stars 5 stars
comments

Star Spangled Banner Tab

#----------------------------------PLEASE NOTE---------------------------------#
#This file is the author's own work and represents their interpretation of the #
#song. You may only use this file for private study, scholarship, or research. #
#------------------------------------------------------------------------------##
From: cbrown@ciit.org (CBrown)

Star Spangled Banner (Smith & Key)
Key of Cmaj

TAB by Carl Brown (The Devolutionist) 
The rhythm is not shown, but I think most
people can feel it out by memory.

------------------------------------------------------------------------------

Additions of "Fig #" and Corrections by John Hohengarten (hoey@mail.wsu.edu)


I noticed on the last note he had it on a string too high,
so I tried it on the 10th fret on the D string, it sounded
more correct, see what you think.
He had it on G string on his original post.
(I didn't include original post of this Fig on this one)

I also noticed in Fig 4, he had an extra D played on 10th fret, it didn't
sound right, so I took it out and it sounds more like it (I even went and
listened to the original song by Key as well to verify this).
See if you agree with me.

------------------------------------------------------------------------------

Fig 1
E---------------------------------
B---------------------------------
G-----------------9-7-------------
D--------------10-----10----------
A--10-7---7-10-----------7-9-10---
E-------8-------------------------

Fig 2
E---------------------------------
B---------------------------------
G--------9-7----------------------
D------------10-9-7-9-10-10-------
A--10-10--------------------10-7--
E--------------------------------8

Repeat Fig 1
Repeat Fig 2
[ Tab from: http://www.guitartabs.cc/tabs/m/misc_traditional/star_spangled_banner_tab_ver_3.html ]
Fig 3
E---------------------------------
B-----------8-8-------------------
G--9-9-9-10-----10-9-7-9-10-10----
D---------------------------------
A---------------------------------
E---------------------------------

Fig 4 (ORIGINAL BY CARL BROWN)
E---------------------------------
B---------------------------------
G--10-9-7-------------------------
D---------10-9-10-7-9-10----------
A------------------------7-9-10---
E---------------------------------




---------------------------------------------------------------------------

Fig 4 (FIXED? BY JOHN HOHENGARTEN)
E------------------------------
B------------------------------
G--10-9-7----------------------
D---------10-9-7-9-10----------
A---------------------7-9-10---
E------------------------------

---------------------------------------------------------------------------



Fig 5
E---------------------------------------
B---------------------------------------
G----------------------7-10-9-7---------
D-----10-10-10-9-7-7-7----------10-10-9-
A--10-----------------------------------
E---------------------------------------


Fig 6 (ORIGINAL BY CARL BROWN)
E------------------------------------
B------------------8-----------------
G-----------7-9-10------7-9-10-7-10--
D--------10----------10--------------
A--10-10-----------------------------
E------------------------------------




---------------------------------------------------------------------------

Fig 6 (FIXED? BY JOHN HOHENGARTEN)
E------------------------------------
B------------------8-----------------
G-----------7-9-10------7-9-10-7-----
D--------10----------10----------10--
A--10-10-----------------------------
E------------------------------------

---------------------------------------------------------------------------




-- 
Carl Brown  (cbrown@ciit.org)
Chemical Industry Institute of Toxicology
Research Triangle Park, NC

Additions & Corrections:
John Hohengarten (hoey@mail.wsu.edu)
Washington State University
Pullman WA
Comments