Misc Traditional - Star Spangled Banner Chords & Tabs

 

Star Spangled Banner Chords & Tabs

Misc Traditional Chords & Tabs

Version: 2 Type: Bass Tab 7 ratings
1 star 2 stars 3 stars 4 stars 5 stars
comments

Star Spangled Banner Bass Tab

notes:Standard tuning

G--0-------0-5--9-7-5---------0-0-9-7-5-4-2-4-5-5-------
D----2---2------------2-4-5-----------------------5-2---
A------3----------------------------------------------3-
E-------------------------------------------------------

G--0-------0-5--9-7-5---------0-0-9-7-5-4-2-4-5-5-------
D----2---2------------2-4-5-----------------------5-2---
A------3----------------------------------------------3-
E-------------------------------------------------------
[ Tab from: http://www.guitartabs.cc/tabs/m/misc_traditional/star_spangled_banner_btab_ver_2.html ]
G--9-9-9-10-12-12--10-9-7-9-10-10-
D---------------------------------
A---------------------------------
E---------------------------------

G-10-9--7-5-4--2-4-5--5---------
D------------------------2-4-5--
A-------------------------------
E-------------------------------

G--0-5-5-5-4-2-2-2-7-9-10-9-7-5---4-
D-----------------------------------
A-----------------------------------
E-----------------------------------

G-0-0-5--7-9-10-12--5-7-9--10-7--5
D---------------------------------
A---------------------------------
E---------------------------------
Comments