Misc Traditional - Spanish Romance Chords & Tabs

 

Spanish Romance Chords & Tabs

Misc Traditional Chords & Tabs

Version: 1 Type: Tab 37 ratings
1 star 2 stars 3 stars 4 stars 5 stars
comments

Spanish Romance Tab

OK Here's the Spanish Romance.  It's very good song to learn if you 
dont know how to fingerpick.  Its a Beautiful song.  If you can get 
it you will drive the girls crazy. Good Luck

e|7--7--7--|7--5--3--|3--2--0--|0--3--7--|
B|-0--0--0-|-0--0--0-|-0--0--0-|-0--0--0-|
G|--0--0--0|--0--0--0|--0--0--0|--0--0--0|
D|---------|---------|---------|---------|
A|---------|---------|---------|---------|
E|0--------|0--------|0--------|0--------|

e|12-12-12-|12-10-8--|8--7--5--|5--7--8--|
B|-0--0--0-|-0--0--0-|-5--5--5-|-5--5--5-|
G|--0--0--0|--0--0--0|--5--5--5|--5--5--5|
D|---------|---------|---------|---------|
A|---------|---------|---------|---------|
E|0--------|0--------|5--------|5--------|

e|7--8--7--|11-8--7--|7--5--3--|3--2--0--|
B|-7--7--7-|-7--7--7-|-0--0--0-|-0--0--0-|
G|--8--8--8|--8--8--8|--0--0--0|--0--0--0|
D|---------|---------|---------|---------|
A|---------|---------|---------|---------|
E|7--------|7--------|0--------|0--------|
[ Tab from: http://www.guitartabs.cc/tabs/m/misc_traditional/spanish_romance_tab.html ]
e|2--2--2--|2--3--2--|0--------|---------|
B|-0--0--0-|-0--0--0-|-0--0--0-|---------|
G|--2--2--2|--2--2--2|--0--0--0|---------|
D|---------|---------|---------|---------|
A|2--------|2--------|---2-----|---------|
E|---------|---------|0-----3--|0--------|

Part 2

e|4--4--4--|4--2--0--|---------|---------|
B|-0--0--0-|-0--0--0-|5--4--4--|4--3--4--|
G|--1--1--1|--1--1--1|-2--2--2-|-2--2--2-|
D|---------|---------|--4--4--4|--4--4--4|
A|---------|---------|2--------|2--------|
E|0--------|0--------|---------|---------|

e|9--9--9--|9--11-9--|9--7--7--|7--9--11-|
B|-7--7--7-|-7--7--7-|-9--9--9-|-9--9--9-|
G|--8--8--8|--8--8--8|--9--9--9|--9--9--9|
D|---------|---------|---------|---------|
A|---------|---------|---------|---------|
E|7--------|7--------|0--------|0--------|

e|12-12-12-|12-11-10-|9--9--9--|9--7--5--|
B|-9--9--9-|-9--9--9-|-5--5--5-|-5--5--5-|
G|--9--9--9|--9--9--9|--6--6--6|--6--6--6|
D|---------|---------|---------|---------|
A|---------|---------|0--------|0--------|
E|0--------|0--------|---------|---------|

e|4--4--4--|4--5--2--|0--------|---------|
B|-4--4--4-|-4--4--4-|-0--0--0-|---------|
G|--2--2--2|--2--2--2|--1--1--1|---------|
D|---------|---------|---------|---------|
A|2--------|2--------|---2-----|---------|
E|---------|---------|0-----4--|0--------|

Repeat Part 1 and slow to end.
Comments