Misc Traditional - South From Garryowen Chords & Tabs

 

South From Garryowen Chords & Tabs

Misc Traditional Chords & Tabs

Version: 1 Type: Tab 0 ratings
1 star 2 stars 3 stars 4 stars 5 stars
comments

South From Garryowen Tab

   
                          Sean south from Garryowen - traditional irish
    
    G                  Emin    G      C     G             G                  C    G
e-----------------------------------------------------------------------------
b---------------------------------------------------0-1-3-3-3-1-3-5-5-3--
g-0-2-4-2-4----2-4-2-0-------0-0-2-0------------------------------------
d-------------0------------0-2----------------------------------------------
a----------------------------------------------------------------------------
e----------------------------------------------------------------------------
   C     Amin D7          G                Emin       G      C  G
e------------------------------------------------------------------------------
b--------1-0------------------------------------------------------------------
g-2-0-0------2----------0-2-4-2-4----2-4-2-0------0-0-2-0----------------
d------------------------------------0------------0-2------------------------
a-------------------------------------------------------------------------------
e-------------------------------------------------------------------------------


for an echo to this fingerpick the given chords.
[ Tab from: http://www.guitartabs.cc/tabs/m/misc_traditional/south_from_garryowen_tab.html ]
Comments