Misc Traditional - Skip To My Lou Chords & Tabs

 

Skip To My Lou Chords & Tabs

Misc Traditional Chords & Tabs

Version: 2 Type: Tab 0 ratings
1 star 2 stars 3 stars 4 stars 5 stars
comments

Skip To My Lou Tab

I got this while I was playing with my guitar one day it's a good
song for beginners.Hope you like it bye.If theres any mistakes e-mail
me at Dkhadd@aol.com.Thanks once again bye

E--0-0---------|
b-----1-1------|
g--------------|
d--------------|
a--------------|
e--------------|

E--0-0--3-----|
b-------------|
g-------------|
d-------------|
a-------------|
e-------------|

E-------------|
b--3-3----0-0-|
g-------------|
d-------------|
a-------------|
e-------------|
[ Tab from: http://www.guitartabs.cc/tabs/m/misc_traditional/skip_to_my_lou_tab_ver_2.html ]
E-------1-----|
b--3-3--------|
g-------------|
d-------------|
a-------------|
e-------------|

E-0-0---------|
b-----1-------|
g-------------|
d-------------|
a-------------|
e-------------|

E--0-0----3---|
b-------------|
g-------------|
d-------------|
a-------------|
e-------------|

E---1-0-------|
b-3-----3-----|
g-------------|
d-------------|
a-------------|
e-------------|

E-------------|
b---3-----3---|
g-------------|
d-------------|
a-------------|
e-------------|
Comments