Misc Traditional - Scarborough Fair Chords & Tabs

 

Scarborough Fair Chords & Tabs

Misc Traditional Chords & Tabs

Version: 1 Type: Tab 0 ratings
1 star 2 stars 3 stars 4 stars 5 stars
comments

Scarborough Fair Tab

#----------------------------------PLEASE NOTE---------------------------------#
#This file is the author's own work and represents their interpretation of the #
#song. You may only use this file for private study, scholarship, or research. #
#------------------------------------------------------------------------------##
 
Mime-Version: 1.0
Content-Type: TEXT/PLAIN; charset=US-ASCII

Scarborough Fair (Traditional)
Melody Notes
Taken from The Complete Guitar Player by Russ Shipton
Transcribed by Patrick Martin
[ Tab from: http://www.guitartabs.cc/tabs/m/misc_traditional/scarborough_fair_tab.html ]
------------0-----0-----0-----------------------------0-----3-----5-----|
------------------------------0-----1-----0-----------------------------|
2-----2-----------------------------------------2-----------------------|
------------------------------------------------------------------------|
------------------------------------------------------------------------|
------------------------------------------------------------------------|
Are   you   go-   ing   to    Scar- bo-   rough Fair? Pars- ley   Sage

3-----0-----2-----------0-----5-----5-----5-----3-----0-----0-----0-----------|
------------------3-----------------------------------------------------3-----|
------------------------------------------------------------------------------|
------------------------------------------------------------------------------|
------------------------------------------------------------------------------|
------------------------------------------------------------------------------|
Rose- ma-   ry    and   thyme.Re-   mem-  ber   me    to    the   one   who

------------------------------0-----------------------------------------|
1-----0-----------------------------3-----1-----0-----------------------|
------------2-----0-----2-----------------------------2-----0-----2-----|
------------------------------------------------------------------------|
------------------------------------------------------------------------|
------------------------------------------------------------------------|
liv-  es    th-   ere,  she   once  was   a     true  love  of    mine
Comments