Misc Traditional - Romanza Chords & Tabs

 

Romanza Chords & Tabs

Misc Traditional Chords & Tabs

Version: 2 Type: Tab 0 ratings
1 star 2 stars 3 stars 4 stars 5 stars
comments

Romanza Tab

Title: Romanza
Notes: Played fast, slows at end.

This is a much easier way to play the song. It's 100% correct, 
I learned it from a guitar course. Enjoy...

[7--7--7--|7--5--3--|3--2--0--|0--3--7--]
[-0--0--0-|-0--0--0-|-0--0--0-|-0--0--0-]
[--0--0--0|--0--0--0|--0--0--0|--0--0--0]
[---------|---------|---------|---------]
[---------|---------|---------|---------]
[0--------|0--------|0--------|0--------]
[ Tab from: http://www.guitartabs.cc/tabs/m/misc_traditional/romanza_tab_ver_2.html ]
[12-12-12-|12-10-8--|7--5--3--|2--2--2--]
[-0--0--0-|-0--0--0-|-0--0--0-|-0--0--0-]
[--0--0--0|--0--0--0|--0--0--0|--0--0--0]
[---------|---------|---------|---------]
[---------|---------|---------|2--------]
[0--------|0--------|0--------|---------]

[2--3--2--|0--0--0--|0--------]
[-0--0--0-|-0--0--0-|---------]
[--0--0--0|--0--0--0|---------]
[---------|2--------|---------]
[2--------|---2-----|---------]
[---------|------3--|0--------]

Submitted by Micah Moses (Mbmoses@dragonball-gt.zzn.com)
Comments