Misc Traditional - Pt Alma Mater By Bd Divens Chords & Tabs

 

Pt Alma Mater By Bd Divens Chords & Tabs

Misc Traditional Chords & Tabs

Version: 2 Type: Tab 0 ratings
1 star 2 stars 3 stars 4 stars 5 stars
comments

Pt Alma Mater By Bd Divens Tab

   
"Penn Trafford Alma Mater (Punk Version)"
Music By: B.D. Divens


Intro (Play 4 times)
e---------------------------------------------------------------------|
B---------------------------------------------------------------------|
G--8-8-8-8-8-8-8-8-8-8------------------------------------------------|
D--8-8-8-8-8-8-8-8-8-8--6-6-6-6-6--8-8-8-8-8-8-8----------------------|
A--6-6-6-6-6-6-6-6-6-6--6-6-6-6-6--8-8-8-8-8-8-8----------------------|
E-----------------------4-4-4-4-4--6-6-6-6-6-6-6----------------------|

Verse 1
Eb
Years from now we will all recall
G#            Bb
Fond Memories of these days
Eb
Where we saw our future in our dreams
G#              Bb
And prepared to make our way
C                 G#
So it's here that we have started
Eb             Bb
And where ever we shall roam
C              G#
We'll remember deep in our hearts
Eb            Bb                  Eb
Penn-Trafford High our Warrior Home

(Play intro again twice)

Verse 2 (Play *'ed Notes only once)
Eb
Years from now we will all recall
G#            Bb
Fond Memories of these days
Eb
Where we saw our future in our dreams
G#              Bb
And prepared to make our way
C                 G#
So it's here that we have started
Eb             Bb
And where ever we shall roam
C              G#
We'll remember deep in our hearts
Eb*           Bb*                 Eb*
Penn-Trafford High our Warrior Home

Bridge Part 1 (Play twice)
e---------------------------------------------------------------------|
B---------------------------------------------------------------------|
G--8-8-8-8-8-8-8-8-8-8------------------------------------------------|
D--8-8-8-8-8-8-8-8-8-8--6-6-6-6-6--8-8-8-8-8-8-8----------------------|
A--6-6-6-6-6-6-6-6-6-6--6-6-6-6-6--8-8-8-8-8-8-8----------------------|
E-----------------------4-4-4-4-4--6-6-6-6-6-6-6----------------------|
[ Tab from: http://www.guitartabs.cc/tabs/m/misc_traditional/pt_alma_mater_by_bd_divens_tab_ver_2.html ]
Bridge Part 2
e---------------------------------------------------------------------|
B---------------------------------------------------------------------|
G--5-5-5-5-5-------------8-8-8-8-8--8-8-8-8-8--5-5-5-5-5--------------|
D--5-5-5-5-5--6-6-6-6-6--8-8-8-8-8--8-8-8-8-8--5-5-5-5-5--6-6-6-6-6---|
A--3-3-3-3-3--6-6-6-6-6--6-6-6-6-6--8-8-8-8-8--3-3-3-3-3--6-6-6-6-6---|
E-------------4-4-4-4-4-------------6-6-6-6-6-------------4-4-4-4-4---|

Bridge Part 3 (Palm Muted)
e---------------------------------------------------------------------|
B---------------------------------------------------------------------|
G---------------------------------------------------------------------|
D--5-5-5-5-5-5-5-5-5-5-5-5-5-5-5-5------------------------------------|
A--5-5-5-5-5-5-5-5-5-5-5-5-5-5-5-5------------------------------------|
E--3-3-3-3-3-3-3-3-3-3-3-3-3-3-3-3------------------------------------|

Verse 3 (Play Every *'ed Note Only once)
Eb*
Years from now we will all recall
G#*           Bb*
Fond Memories of these days
Eb*
Where we saw our future in our dreams
G#*             Bb*
And prepared to make our way
C*               G#*
So it's here that we have started
Eb*           Bb*
And where ever we shall roam
C*            G#*
We'll remember deep in our hearts
Eb(Palm Muted)                              Eb*
Penn-Trafford High...........Our Warrior Home

Outro (Play 7 Times)
e---------------------------------------------------------------------|
B---------------------------------------------------------------------|
G--8-8-8-8-8-8-8-8-8-8------------------------------------------------|
D--8-8-8-8-8-8-8-8-8-8--6-6-6-6-6--8-8-8-8-8-8-8----------------------|
A--6-6-6-6-6-6-6-6-6-6--6-6-6-6-6--8-8-8-8-8-8-8----------------------|
E-----------------------4-4-4-4-4--6-6-6-6-6-6-6----------------------|

Ending
e---------------------------------------------------------------------|
B---------------------------------------------------------------------|
G--8-8-8-8-8-8-8-8-8-8------------------------8~~~~~~~~~~~~~~~~~~~~8--|
D--8-8-8-8-8-8-8-8-8-8--6-6-6-6-6--8-8-8-8-8--8~~~~~~~~~~~~~~~~~~~~8--|
A--6-6-6-6-6-6-6-6-6-6--6-6-6-6-6--8-8-8-8-8--6~~~~~~~~~~~~~~~~~~~~6--|
E-----------------------4-4-4-4-4--6-6-6-6-6--------------------------|

Well that's all there is to it.  This my own transcription of the P.T.
Alma Mater, so I hope you like it, cuz Punks have more fun.

-B.D.
Comments