Misc Traditional - Philippine National Anthem Chords & Tabs

 

Philippine National Anthem Chords & Tabs

Misc Traditional Chords & Tabs

Version: 1 Type: Tab 0 ratings
1 star 2 stars 3 stars 4 stars 5 stars
comments

Philippine National Anthem Tab

Lupang Hinirang (Philippine Nat'l. Anthem)
Tabbed by amasa

Para sa lahing Pilipino

e ----------------------------------------------------------|
B -------------7-9-10-9-7-9-----------------7-9-10-9-7------|
G --9-8-11-9----------------9----9-8-11-9--------------9----|
D -----------9----------------------------9-----------------|
A ----------------------------------------------------------|
E ----------------------------------------------------------|

e ----------------------------------------------------------|
B -------------7-9-10-9-7-9-----------------7-9-10-9-7------|
G --9-8-11-9----------------9----9-8-11-9--------------9----|
D -----------9----------------------------9-----------------|
A ----------------------------------------------------------|
E ----------------------------------------------------------|

e --------------------------------------------|
B ----------------------------99-11/12-14-12-|
G --9-8-9-/11-11-----11-11--------------------|
D --------------9-9-------9-9-----------------|
A --------------------------------------------|
E --------------------------------------------|

-----------------------------------------------|
-----------------------------9-11-9----9-------|
--9-8-9-/11-11-----11-11------------11---11-9--|
---------------9-9-------9-9-------------------|
-----------------------------------------------|
-----------------------------------------------|
[ Tab from: http://www.guitartabs.cc/tabs/m/misc_traditional/philippine_national_anthem_tab.html ]
e --------------------------------------------|
B ----------------------------99-11/12-14-12-|
G --9-8-9-/11-11-----11-11--------------------|
D --------------9-9-------9-9-----------------|
A --------------------------------------------|
E --------------------------------------------|

-----------------------------------------------|
-----------------------------9-11-9----9-------|
--9-8-9-/11-11-----11-11------------11---11-9--|
---------------9-9-------9-9-------------------|
-----------------------------------------------|
-----------------------------------------------|


e --------------------------------------------|
B --------10-10--12-12-12/14-12-10-12-12/14--|
G --9-8-9-------------------------------------|
D --------------------------------------------|
A --------------------------------------------|
E --------------------------------------------|

-------------------------------------------|
--15-14-12-12/14-10-10/12-9-9-10~----------|
-------------------------------------------|
-------------------------------------------|
-------------------------------------------|
-------------------------------------------|

e --------------------------------------------|
B --------10-10--12-12-12/14-12-10-12-12/14--|
G --9-8-9-------------------------------------|
D --------------------------------------------|
A --------------------------------------------|
E --------------------------------------------|

-------------------------------------------|
--15-14-12-12/14-10-10/12-9-9-10~----------|
-------------------------------------------|
-------------------------------------------|
-------------------------------------------|
-------------------------------------------|

Mga kabayan kung may mali paki e-mail na lang sa amasa@hotmail.com
Comments