Misc Traditional - Nice Slow Song Chords & Tabs

 

Nice Slow Song Chords & Tabs

Misc Traditional Chords & Tabs

Version: 2 Type: Tab 0 ratings
1 star 2 stars 3 stars 4 stars 5 stars
comments

Nice Slow Song Tab

e--0---0-------1p0---------0------0------|
h----------3-------0--1------1-------1---|
g----0---0---0-----------0------0--------|
d----------------------------------------|
a--3-------2----------0------------------|
E----------------------------------------|
[ Tab from: http://www.guitartabs.cc/tabs/m/misc_traditional/nice_slow_song_tab_ver_2.html ]
e--0---0-------1p0---------0------0-------3-------3----------3----------3---------|
h----------3-------0--1------1-------1-------0------0----------0----------0-------|
g----0---0---0-----------0------0--------------0------0----------0----------0-----|
d---------------------------------------------------------2----------3------------|
a--3-------2----------0-------------------3-------2-------------------------------|
E---------------------------------------------------------------------------------|

e-----0----------1p0---------0------0-----3-------3----------3----------3-----0---|
h-1-----1--3---------0--1------1------1-----0------0----------0----------0----1---|
g---0---------0-----------0-------0----------0------0----------0----------0---0---|
d----------------------------------------------------------2----------3-------2---|
a-3--------3------------0-----------------3--------2--------------------------3---|
E-----------------------------------------------------------------------------0---|
Comments