Misc Traditional - Loch Lomond Chords & Tabs

 

Loch Lomond Chords & Tabs

Misc Traditional Chords & Tabs

Version: 1 Type: Tab 0 ratings
1 star 2 stars 3 stars 4 stars 5 stars
comments

Loch Lomond Tab

   
Loch Lomond

INTRO.
         E                G
e--------0----------------3-------------------------------
B--------2----------------2-------------------------------
G--------2----------------0-------------------------------
D--5-5-7-1------9-7-5-5-2-0-------------------------------
A--------0----------------0-------------------------------
E--------0----------------3-------------------------------

VERSE/CHORUS
G  G  C  G
G  G  G  E(or Em) D
G  G  C  G
G  G  G  D  G

For the song, there are three strum patters used.
[quarternote, eighthnote, eighthnote, quarternote, eighthnote eighthnote]
Call this Strum Pattern #1
[halfnote]
Call this Strum pattern #2
[eighthnote, eighthnote]
call this strum pattern #3.  Below is the chord progression seen above, 
this time with the strum pattern number next to the chord.

G(1)  G(1)  C(1)  G(1)
G(1)  G(1)  G(1)  E(2)  D(3)
G(1)  G(1)  C(1)  G(1)
G(1)  G(1)  G(1)  D(2)  G(3)

This pattern can be used for the Verses and Chorus, due to the 
nature of the song.
[ Tab from: http://www.guitartabs.cc/tabs/m/misc_traditional/loch_lomond_tab.html ]
I wrote the following solo to capture the spirit of the song, while 
staying different from the exact melody.  You can have a rythm guitar 
play the normal chords behind the solo, or others if you have ones 
you'd rather use.  Feel free to fool around with my solo if you want, 
although I'd definitely be interested in what you write fo it, so 
please send it along if you wish.

SOLO

e---------------------------------------------------------
B---------------------------------------------------------
G--0-0-5-5-7-9-9-7-5-5-2-0----------0-0-2-5-5-7-9-7-------
D-------------------------------0-0-----------------------
A---------------------------------------------------------
E---------------------------------------------------------


e---------------------------------------------------------
B---------------------------------------------------------
G--7-9-9-9-7-5-5-7-5-4-2-0--------------0-0-2-5-7-5-2-0---
D--------------------------2------0-0-2-----------------3-
A---------------------------------------------------------
E---------------------------------------------------------

e---------------------------------------------------------
B---------------------------------------------------------
G---------------------------------------------------------
D--2-00---------------------------------------------------
A-------3-22-0--------------------------------------------
E--------------33-1/9-7-----------------------------------

Tabbed by Kojiro Kai Li  
kai_li_kojiro@hotmail.com
Comments