Misc Traditional - Homeward Bound Chords & Tabs

 

Homeward Bound Chords & Tabs

Misc Traditional Chords & Tabs

Version: 1 Type: Tab 0 ratings
1 star 2 stars 3 stars 4 stars 5 stars
comments

Homeward Bound Tab

Homeward Bound

Words and Music by Marta Keen.

Tabbed by The Dark Canuck
                                
E||------------------|------------------|-------------------|
B||------------------|-------0----------|-------------------|
G||------------------|--0---------------|-------------------|
D||------------2---3-|------------2--0--|-------------2--3--|
A||------------------|------------------|--3---2-2----------|
E||------------------|------------------|-------------------|
              In  the  qui - et   misty    morning  when the

                                                                           
------------0-----|-----------0-----|------------------|------------------|
-------0-------3--|--1------------3-|--1----0----0-----|------------------|
--0---------------|-----------------|---------------0--|------------------|
------------------|-----------------|------------------|--3----2----2--3--|
------------------|-----------------|------------------|------------------|
------------------|-----------------|------------------|------------------|
moon has  gone to   bed.    When the spar-rows stop thier singing  and the

                                                                            
------------------|-----------------|------------------|-------------------|
------------------|-----------------|-------0-------0--|-------------------|
--0---------------|-----------------|--0---------0-----|--2---0-0----------|
---------2-----2--|--3--------2---3-|------------------|-------------2--3--|
------------3-----|-----------------|------------------|-------------------|
------------------|-----------------|------------------|-------------------|
 sky  is clear and  red.    When the sum-mer's ceased its gleam-ing when the
[ Tab from: http://www.guitartabs.cc/tabs/m/misc_traditional/homeward_bound_tab.html ]
                                                                           
------------0-----|-----------0-----|------------------|------------------|
-------0-------3--|--1------------3-|--1----0----0-----|------------------|
--0---------------|-----------------|---------------0--|------------------|
------------------|-----------------|------------------|--3----2----2--3--|
------------------|-----------------|------------------|------------------|
------------------|-----------------|------------------|------------------|
corn  is  past its prime.   When ad-vent-ure's lost its mean-ing   I'll be

                                                                          
------------------|-----------0-----|-----------0-----|------------0-----|
------------------|--------------3--|--1------------3-|--1----0-------3--|
--0---------------|-----------------|-----------------|------------------|
---------2-----2--|--2--------------|-----------------|------------------|
------------3-----|-----------------|-----------------|------------------|
------------------|-----------------|-----------------|------------------|
home-ward bound in  time.    Bind me  not       to the  past-ure chain me

                                                                           
-----------------|-----------0-----|------------------|-------------------|
--1--------0-----|--0-----------3--|--1------1--0-----|-------------------|
---------------0-|-----------------|---------------0--|-------------------|
-----------------|-----------------|------------------|--3----2--2--2--3--|
-----------------|-----------------|------------------|-------------------|
-----------------|-----------------|------------------|-------------------|
 not      to the   plow.   Set me    free  to find my calling and i'll re -

                                    
------------------|---------------||
------------------|---------------||
--0---------------|---------------||
---------2-----2--|--2------------||
------------3-----|---------------||
------------------|---------------||
 turn  to you some -how

-Pretty much the same for the next verse-

If you find it's me you're missing, if you're hoping I'll return.
To your thoughts I'll soon be listning, in the road, I'll stop and turn.
Then the wind will set me racing as my journey nears its end
and the path I'll be retracing when I'm homeward bound again.
Bind me not to the pasture, chain me not to the plow.
Set me free to find my calling and I'll return to you somehow.
Comments