Misc Traditional - Highland Cathedral Chords & Tabs

 

Misc Traditional Chords & Tabs

Version: 1 Type: Tab 0 ratings
1 star 2 stars 3 stars 4 stars 5 stars
comments

Highland Cathedral Tab

highland cathedral





e|---------12-14--|-12----------|-12-------14--|-14----|
B|-15-------------|----15----15-|--------------|-------|
G|----------------|-------14----|--------------|-------|
D|----------------|-------------|--------------|-------|
A|----------------|-------------|--------------|-------|
E|----------------|-------------|--------------|-------|

e|--14--------15-17--|--15--14--12-----|--12-------14--|---------|
B|-------------------|-------------15--|---------------|---------|
G|-------------------|-----------------|---------------|--14-----|
D|-------------------|-----------------|---------------|---------|
A|-------------------|-----------------|---------------|---------|
E|-------------------|-----------------|---------------|---------|

e|----------------|--------------|--17-------15-|--14----|
B|--12------14-15-|--15----14-15-|--------------|--------|
G|----------------|-----14-------|--------------|--------|
D|----------------|--------------|--------------|--------|
A|----------------|--------------|--------------|--------|
E|----------------|--------------|--------------|--------|

e|--12--------14-15-|--14-----------|--12---------|--------|------------|
B|------------------|-----15----15--|---------15--|--15----|-14---------|
G|------------------|--------14-----|-------------|--------|--------14--|
D|------------------|---------------|-------------|--------|------------|
A|------------------|---------------|-------------|--------|------------|
E|------------------|---------------|-------------|--------|------------|
[ Tab from: http://www.guitartabs.cc/tabs/m/misc_traditional/highland_cathedral_tab.html ]
e|--12--------12--|--14----------|------------------|-------------------|
B|----------14----|-----------14-|--14-14---14--12--|-----------12--14--|
G|----------------|--------------|------------------|--14----14---------|
D|----------------|--------------|------------------|-------------------|
A|----------------|--------------|------------------|-------------------|
E|----------------|--------------|------------------|-------------------|

e|--------------|---------------12--|--------|------------|
B|--12------12--|--14----14--15-----|--12----|-14---------|
G|--------------|-------------------|--------|--------14--|
D|--------------|-------------------|--------|------------|
A|--------------|-------------------|--------|------------|
E|--------------|-------------------|--------|------------|

e|--12--------12--|--14----------|------------------|-------------------|
B|----------14----|-----------14-|--14-14---14--12--|-----------12--14--|
G|----------------|--------------|------------------|--14----14---------|
D|----------------|--------------|------------------|-------------------|
A|----------------|--------------|------------------|-------------------|
E|----------------|--------------|------------------|-------------------|

e|--------------|---------------12--|--------------|---------|---------|
B|--12------12--|--14----14--15-----|--12------12--|---------|---------|
G|--------------|-------------------|--------------|--14-----|--14-----|
D|--------------|-------------------|--------------|---------|---------|
A|--------------|-------------------|--------------|---------|---------|
E|--------------|-------------------|--------------|---------|---------|
Comments