Misc Traditional - Greensleeves Chords & Tabs

 

Greensleeves Chords & Tabs

Misc Traditional Chords & Tabs

Version: 1 Type: Tab 0 ratings
1 star 2 stars 3 stars 4 stars 5 stars
comments

Greensleeves Tab

   
#----------------------------------PLEASE NOTE---------------------------------#
#This file is the author's own work and represents their interpretation of the #
#song. You may only use this file for private study, scholarship, or research. #
#------------------------------------------------------------------------------#
Tabbed by: Michael Miller (mydogisklunk@hotmail.com)


"GreenSleeves" (Traditional)

This is a basic layout of how the lead goes. Listen to the song for timing.

*KEY --
	h = hammer-on
	p = pull-off
	/ = slide up
	\ = slide down
        b = bend
        r = release
	x = mute
       () = ghost note
[ Tab from: http://www.guitartabs.cc/tabs/m/misc_traditional/greensleeves_tab.html ]
E|--------------------------------------------------------------------------------------|
B|--------------------------------------------------------------------------------------|
G|------5-7-9-10-9-7-4------4-5-4-------4-----------------------------------------------|
D|----7----------------5--7-------7-6-7---6---------------------------------------------|
A|------------------------------------------7-------------------------------------------|
E|--------------------------------------------------------------------------------------|


E|--------------------------------------------------------------------------------------|
B|--------------------------------------------------------------------------------------|
G|------5-7-9-10-9-7-4------4-5-4-------------------------------------------------------|
D|----7----------------5--7-------7-6--4-6-7--------------------------------------------|
A|--------------------------------------------------------------------------------------|
E|--------------------------------------------------------------------------------------|

Comments